Табулатура Mark Knopfler | One More Matinee гитара табулатуры уроки тексты песен Mark Knopfler текст lyrics песня аккорды песни ноты нота электрогитара струна  
   А Б В Г Д Е Ж З И К Л М Н О П Р С Т У Ф Х Ч Ш Ы Э Ю Я       Разные песни
1-9 A B C D E F G H I J K L M N O P Q R S T U V W Y Z      Все исполнители

    



группа Mark Knopfler, Табулатура песни One More Matinee

Группа: Mark Knopfler - другие аккорды (43),   об исполнителе (1 статей),   диски (11),   фотографии (8)
Табулатура песни: One More Matinee
Просмотров: 1274
Прислал: squire (nokeltaeh@yahoo.ie)




    
Artist:Mark Knopfler
Album:Sailing To Philadelphia
Title:One more Matinee
Transcriped by:Gцkay Ersoy
E-mail:gokay96@hotmail.com
Please send your corrections and comments;
guitar solo:
---------------------------------------------------------
--5-8~---5b-------5-6-5----------------------------------
------------7---7-------7p5--------5~--7h9-7h9-7~--------
-----------------------------7-5-7-----------------------
---------------------------------------------------------
---------------------------------------------------------
---------------------------------------------------------
-5-8-5---------5-6-5-----6-5-----------------------------
-------7~---7b-------7-------7-5~---7-5-4h5--------------
--------------------------------------------7----5h3-5~--
---------------------------------------------------------
---------------------------------------------------------

Продолжаем грести бабос на ботах в Telegram.
Только в этот раз есть вариант автоматизировать это дело, привлекая рефералов. Вы можете заработать если »

guitar ends. --------------------------------------------------------- ---5-----8--5----5-6-5-----------5-6--5---5------------- -7---7-5------7-------------7p5-7--------7----5-4---5-7-- --------------------------------------------------7------ --------------------------------------------------------- --------------------------------------------------------- --------------------------------------------------------- -5-6-5---6-5-------5------------------------------------- -------------7-5-7---5-4---5-7--.......------------------ -------------------------7------------------------------- --------------------------------------------------------- --------------------------------------------------------- h=hammer on p=pull of b=bend ~:vibrato








О сайтеАккордыХит-парадПоискУроки ФорумыИщу песню
ПрограммыСвежачок-сПодпискаСтатьи
Яндекс.Метрика