Табулатура Mark Knopfler | Baloney Again гитара табулатуры уроки тексты песен Mark Knopfler текст lyrics песня аккорды песни ноты нота электрогитара струна  
   А Б В Г Д Е Ж З И К Л М Н О П Р С Т У Ф Х Ч Ш Ы Э Ю Я       Разные песни
1-9 A B C D E F G H I J K L M N O P Q R S T U V W Y Z      Все исполнители

    



группа Mark Knopfler, Табулатура песни Baloney Again

Группа: Mark Knopfler - другие аккорды (43),   об исполнителе (1 статей),   диски (11),   фотографии (8)
Табулатура песни: Baloney Again
Просмотров: 1548
Прислал: squire (nokeltaeh@yahoo.ie)




    
Artist: Mark Knopfler
 Album: Sailing To Philadelphia
 Title: Baloney Again
 Transcribed by: Gцkay Ersoy
 E-mail: gokay96@hotmail.com
      please send your comments and corrections;
Guitar solo:
3:12
------------------2~--------------------------------5----------------------------------
---------3--5-3h5-------5-3h5-3-5-5h7p5-3h5-3---------7~--/7-5-3-5brp3-----------------
-4b-2--4--------------4-----------------------4-4--------------------------------------
---------------------------------------------------------------------------------------
---------------------------------------------------------------------------------------
---------------------------------------------------------------------------------------
3:26
-------2--------2-3-2------------------------------------------------------------------
---3-5---3------------5--7-5-3-------------7-5---5-------------------------------------
-4---------3~------------------4--------7)-----7---9b11r9p7-9-7------------------------
---------------------------------4~----9-----------------------(9-9)-------------------
-------------------------------------(9------------------------------------------------
---------------------------------------------------------------------------------------
3:38
---------------------------------------------------------------------------------------
----------------------------------------5-3---------3-5-5bp3h5--3----------------------
---6-7/9br-7-9-7-7h9b-7h9-7-9-7-6h7---------4-2h4-4---------------4-2------------------
-9----------------------------------9---------------------------------4-4p2--4p2-------
---------------------------------------------------------------------------------5--2~-
---------------------------------------------------------------------------------------
3:50
---------------------------------------------------------------------------------------
---------------------------------------------------------------------------------------
---2h4-/7-4~---------------------------------------------------------------------------
-4-------------------------------------7/12-12-/9-9~-12-*-*-12-11-12/14---7-9---7-12-9-
------------7-7-5h7--5h7-------------9----------------------------------------9--------
-------------------------5h7--5-7~-----------------------------------------------------
4.04

Продолжаем грести бабос на ботах в Telegram.
Только в этот раз есть вариант автоматизировать это дело, привлекая рефералов. Вы можете заработать если »

--------------------------------------------------------------------------------------- --------------------------------------------------------------------------------------- ------------------7-9-7---------7-9b11r9p7bh9--/9b--9-7-9b-11-12-11-9------------------ -7-9----------7-9-------9-7h9~-----------------/9b--------------------12-9h12-9p7------ -----7-5~-------------------------------------------------------------------------9~(7) ---------7----------------------------------------------------------------------------- 4:18 ---------------------5/7-5------------------------------------------------------------- ---------------------3/5---7----------------------------------------------------------- -9b10-11~--9-7h9-------------9-7-7h9--7-9-9b-7-9-7-9b-----------7~--------------------- -----------------9-------------------9--------------------9p7h9-----9p7-9b-7----------- --------------------------------------------------------------------------------------- --------------------------------------------------------------------------------------- 4:31 --------------------------------------------------------------------------------------- --------------------------------------------------------------------------------------- -7b------------------------------------------------------------------------------------ -----9-7-9p7-----------------/9-9------------------------------------------------------ -------------9p7-5-/7--0h2---/7-7--7h9p7-5/7--5h7-7p5-/2------------------------------- --------------------------------------------------------------------------------------- harmonica: ---------------------------------------------------------------------------------------- -----2-3--3---3-----2-3-2--------------------------------------------------------------- ---4--------4-----4-------4-2------4---4b-4--------------------------------------------- -4----------------------------4--4---4-------------------------------------------------- ---------------------------------------------------------------------------------------- ---------------------------------------------------------------------------------------- h=hammer on p=pull off b=bending r=release bend ~=vibrato /=slide *=dead note








О сайтеАккордыХит-парадПоискУроки ФорумыИщу песню
ПрограммыСвежачок-сПодпискаСтатьи
Яндекс.Метрика