Табулатура Mark Knopfler | Junkie Doll гитара табулатуры уроки тексты песен Mark Knopfler текст lyrics песня аккорды песни ноты нота электрогитара струна  
   А Б В Г Д Е Ж З И К Л М Н О П Р С Т У Ф Х Ч Ш Ы Э Ю Я       Разные песни
1-9 A B C D E F G H I J K L M N O P Q R S T U V W Y Z      Все исполнители

    



группа Mark Knopfler, Табулатура песни Junkie Doll

Группа: Mark Knopfler - другие аккорды (43),   об исполнителе (1 статей),   диски (11),   фотографии (8)
Табулатура песни: Junkie Doll
Просмотров: 793
Прислал: squire (nokeltaeh@yahoo.ie)




    
Artist: Mark Knopfler
Title: Junkie Doll
Album: Sailing To Philadelphia
Trancriped by: Gцkay Ersoy
Email: gokay96@hotmail.com
Please send your corrections amd comments
First solo:
1:26 
------------------------------------------------------------------
------------------------------------------------------------------
------------------------------------------------------------------
-----8p6---------8b----6---6------6---6---------------------------
-8-------8--6h8--8b------8----/6----8--8-6------------------------
-6------------------------------------------9-6-------------------
1:31  
------------------------------------------------------------------
--/6b-6-6---4h6-4---4b------4-------------------------------------
------------------6---6--3----6--3-3----8bp6----8b----------------
---------------------------------------------(8)------------------
------------------------------------------------------------------
------------------------------------------------------------------
1:38 
------------------------------------------------------------------
--6-4--4-2---2--2-------------------------------------------------
-----------3------3-----------------------------------------------
------------------------8p-6--------------------------------------
-----------------------------8--8p-6------------------------------
-------------------------------------9--6-------------------------
1:42
--------------------------------------6b--------------------------
--------------------------6--------------9-6----------------------
-----6--8p6--6----------8b---8p6-------------8b-------------------
---8-----------8-6-8-------------8-8------------------------------
(8b)--------------------------------------------------------------
------------------------------------------------------------------
1:50 
------------------------------------------------------------------
-------6----------------------------------------------------------
--6h-8-----8p-6---------------8p6---------------------------------
----------------8-8--8--6------------8p6--------------------------
-------------------------/8-8------------8-8-8p6------------------
-------------------------------------------------9-6---1-1-1------
second solo:
2:55                    2:58           3:02
----------1-----1-----------1--------------------------------------
----2h4b-------2---4-4---4-2---4-2---------------- 1---------------
--3--------------------------------3-(3)--1h3-1h3-----3------------
--------------------------------------------------3----------------
-------------------------------------------------------------------
-------------------------------------------------------------------

Продолжаем грести бабос на ботах в Telegram.
Только в этот раз есть вариант автоматизировать это дело, привлекая рефералов. Вы можете заработать если »

3:04 3:08 ------------1-----------1--4--------2b(4)-4-2-1-------------------- -1h2--4-1h2---2p1-------------4-4---------------------------------- -------------------3-3---------------------------3-3--------------- ------------------------------------------------------------------- ------------------------------------------------------------------- ------------------------------------------------------------------- 3:13 3:20 ------------------------------------------------------------------- ----------1----------2b-----6b--4b------6br4----------------------- 1h-3--1-----3(3)-----------------------6----6---------------------- -------3----------------------------------------------------------- ------------------------------------------------------------------- ------------------------------------------------------------------- 3.25 3:28 3:31 3:33 -------------------------------------1--4-3---2b--4-2-1------------- ------1---1----------1h2p1------------------------------------------ ----1---1----3-----(3)------3-1h3-----------------------3-2--------- --3----------------------------------------------------------------- -------------------------------------------------------------------- -------------------------------------------------------------------- 3:36 3:39 --------------------------------------------------------------------- --------------1-------2p1-------------------------------------------- --1h3-1h3---1---3---3-----3-1-3p1------------------------------------ -----------3----------------------3-1-3-1---------------------------- ------------------------------------------1-(1)---------------------- --------------------------------------------------------------------- 3:45 3:48 --6b--4-------------------------------------------------------------- ---------6-4--6p4------------6-4---4h6-4---4-----------1------------- ------------------3----(3)/6-------------6---3-------1---3----------- ------------------------------------------------1h-3----------------- --------------------------------------------------------------------- --------------------------------------------------------------------- 3:544:00 ---1-------------1--------------------------------------------------- -2----4-----4-2-----4--4p2-----------------------------------6-4-.... ---------------------------3----1h-3-1--3-1-3-1--0-1-0--------------- -------------------------------------------------------/5------------ --------------------------------------------------------------------- --------------------------------------------------------------------- h= hammer on p= pull off b= bend /= slide ( )= grace note








О сайтеАккордыХит-парадПоискУроки ФорумыИщу песню
ПрограммыСвежачок-сПодпискаСтатьи
Яндекс.Метрика