Табулатура Mark Knopfler | Prairie Wedding гитара табулатуры уроки тексты песен Mark Knopfler текст lyrics песня аккорды песни ноты нота электрогитара струна  
   А Б В Г Д Е Ж З И К Л М Н О П Р С Т У Ф Х Ч Ш Ы Э Ю Я       Разные песни
1-9 A B C D E F G H I J K L M N O P Q R S T U V W Y Z      Все исполнители

    



группа Mark Knopfler, Табулатура песни Prairie Wedding

Группа: Mark Knopfler - другие аккорды (43),   об исполнителе (1 статей),   диски (11),   фотографии (8)
Табулатура песни: Prairie Wedding
Просмотров: 795
Прислал: squire (nokeltaeh@yahoo.ie)




    
Artist: Mark Knopfler
Album: Sailing To Philadelphia
Title: Prairie Wedding
Transcription by: Gцkay Ersoy
E-mail: gokay96@hotmail.com
please send your comments and corrections;
intro:
-------------------------------------------------------
-------------------------------------------------------
-------------------------------------------------------
-------------------------------------------------------
---------6-6h8-------6h8-8/10-8-6--6---------------6---
--3--6h8---------6h8-----------------8-6-8-----6h8---8-
solo:
2:36
-------------------------------------------------------
-----8----8-6-------3-6-3-------------8----8----8-8-6--
---5--5-5--------3h5------5-3--5-----5-5--5-5-5--------
---------------------------------5---------------------
-------------------------------------------------------
-------------------------------------------------------
2:49
-------------------------------------------------------
-----3b-3h4-3-------------------6h-8b-pb8r-6h8-8-------
-3h5-----------5-3p5--5p3------5------------------5----
--------------------------5----------------------------
-------------------------------------------------------
-------------------------------------------------------
2:57

Продолжаем грести бабос на ботах в Telegram.
Только в этот раз есть вариант автоматизировать это дело, привлекая рефералов. Вы можете заработать если »

------------------------------------------------------- ---------6-8brb-r-6h8-8-6h8p6-4-6--------3------------- -------5--------------------------3-5------5p3-5------- ---5-8------------------------------------------------- ------------------------------------------------------- ------------------------------------------------------- 3:03 ------------------------------------------------------- ---------5h6-5----------------------------------------- ---5-7b--------7-5--7p5-3--------3--------------------- -5---------------------------3h5---3--1h3--1----------- ---------------------------------------------(3)------- ------------------------------------------------------- 3:11 ------------------------------------------------------- ------------------------------------------------------- ------------------------------------------------------- ----------------1-------------------------------------- ---3-1--------3---3------------------------------------ -------3--1h3------------------------------------------ h=hammer on p=pull off b=bending r=release bend /=slide pb=prebend 3:11=time from my cd








О сайтеАккордыХит-парадПоискУроки ФорумыИщу песню
ПрограммыСвежачок-сПодпискаСтатьи
Яндекс.Метрика