Табулатура Staind | Outside гитара табулатуры уроки тексты песен Staind текст lyrics песня аккорды песни ноты нота электрогитара струна  
   А Б В Г Д Е Ж З И К Л М Н О П Р С Т У Ф Х Ч Ш Ы Э Ю Я       Разные песни
1-9 A B C D E F G H I J K L M N O P Q R S T U V W Y Z      Все исполнители

    



группа Staind, Табулатура песни Outside

Группа: Staind - другие аккорды (17),   о группе (8 статей),   диски (4),   фотографии (17)
Табулатура песни: Outside
Просмотров: 1293
Прислал: BaHaMuT (horn123@bk.ru)




    
играть боем:
в куплете
D#||--0----0--------0-----0--|----------0-0-------------|
A#||--0----0---0-0--0-----0--|------0---0-0--0----0-----|
F#||--9----9---9-9--9-----7--|------7-----7--7--x-7-----|
C#||--9----9---9-9--9-----7--|------7--------7----7-5-5-|
G#||--7----7---7-7--7--0--5--|------5--------5------5-5-|
D#||--0----0-----------------|----------------------3-3-|

-----------0-------------|-----------0--------0------|
-------0---0-0--------0--|--0----0---0-0-0----0------|
-------x-----x--------x--|-------0---0-0---0--0------|
--5----5-----5--5-----7--|--7----7---------7--7----0-|
--5----5-----5--5-----7--|--7----7---------7--7--0-0-|
--3----3--------3--0--5--|--5----5---------5--5--0---|
на припеве
|------------------------|------------------------|
|------------------------|------------------------|
|*-----------------------|-------7-----------5/---|
|*--2----2--------2----5-|--5----------9----------|
|---2----2--------2--x-5-|--5---------------------|
|---2----2--------2--x-5-|--5-------5-----5-------|

-----------------------|---------------------------||-----------------------|
-----------------------|--------0-----1h-0---------||-----------------------|
-----------------------|--2-----------------2h-0--*||-----------------------|
--0----0--------0------|--2-----------------------*||--2----2------2--2--0--|

Продолжаем грести бабос на ботах в Telegram.
Только в этот раз есть вариант автоматизировать это дело, привлекая рефералов. Вы можете заработать если »

--0----0--------0------|--0------------------------||--2----2------2--2--0--| --0----0--------0--2-2-|-----2-----2---------------||--2----2------2--2--0--| ----------------------|-------------------------|-------------------|------| ----------------------|-------------------------|-------------------|------| ----------------------|-------7-----------5-----|-------------------|------| ------0--------0--0-0-|--5----------9--------7--|--7----------------|------| ------0--------0--0-0-|--5-------------------7--|--7----------------|------| ------0--------0--0-0-|--5-------5-----5-----7--|--7----------------|------| а вторая гитара перебором: ----------------------------------|--------------------------------| --12------12------13--12----------|----------------12--------------| ------------------------------14--|--------14----------14------14--| ------14------14----------14------|----14------14----------14------| ----------------------------------|--------------------------------| ----------------------------------|--------------------------------| --------------------------------|-------------------------| --------------10------------12--|-------------------------| ------12------------12----------|----12---------12--------| --12------12------------12------|--------9/-10------------| --------------------------------|-------------------------| --------------------------------|-------------------------|








О сайтеАккордыХит-парадПоискУроки ФорумыИщу песню
ПрограммыСвежачок-сПодпискаСтатьи
Яндекс.Метрика