Табулатура Staind | For You  (2) гитара табулатуры уроки тексты песен Staind текст lyrics песня аккорды песни ноты нота электрогитара струна  
   А Б В Г Д Е Ж З И К Л М Н О П Р С Т У Ф Х Ч Ш Ы Э Ю Я       Разные песни
1-9 A B C D E F G H I J K L M N O P Q R S T U V W Y Z      Все исполнители

    



группа Staind, Табулатура песни For You (2)

Группа: Staind - другие аккорды (17),   о группе (8 статей),   диски (4),   фотографии (17)
Табулатура песни: For You (2)
Просмотров: 848
Прислал: BaHaMuT (horn123@bk.ru)




    
A#||----------------------------------|-----------------------------------|
F#||----------------------------------|-----------------------------------|
C#||----------------------------------|-----------------------------------|
A#||----------------------------------|-----------------------------------|
D#||--7h9-x-x-7h9-x-7h9-x-x-x-7h9-x-x-|--7h9-x-x-7h9-x-7h9-x-x-x-10h9-x-7-|
G#||--7h9-x-x-7h9-x-7h9-x-x-x-7h9-x-x-|--7h9-x-x-7h9-x-7h9-x-x-x-10h9-x-7-|

----------------------------------|-----------------------------------|
----------------------------------|-----------------------------------|
----------------------------------|-----------------------------------|
----------------------------------|-----------------------------------|
--7h9-x-x-7h9-x-7h9-x-x-x-7h9-x-x-|--7h9-x-x-7h9-x-7h9-x-x-x-10h9-x-7-|
--7h9-x-x-7h9-x-7h9-x-x-x-7h9-x-x-|--7h9-x-x-7h9-x-7h9-x-x-x-10h9-x-7-|

----------------------------------|-----------------------------------|
----------------------------------|-----------------------------------|
----------------------------------|-----------------------------------|
----------------------------------|-----------------------------------|
--7h9-x-x-7h9-x-7h9-x-x-x-7h9-x-x-|--7h9-x-x-7h9-x-7h9-x-x-x-10h9-x-7-|
--7h9-x-x-7h9-x-7h9-x-x-x-7h9-x-x-|--7h9-x-x-7h9-x-7h9-x-x-x-10h9-x-7-|

----------------------------------|-----------------------------------|
----------------------------------|-----------------------------------|
----------------------------------|-----------------------------------|
----------------------------------|-----------------------------------|
--7h9-x-x-7h9-x-7h9-x-x-x-7h9-x-x-|--7h9-x-x-7h9-x-7h9-x-x-x-10h9-x-7-|
--7h9-x-x-7h9-x-7h9-x-x-x-7h9-x-x-|--7h9-x-x-7h9-x-7h9-x-x-x-10h9-x-7-|

----------------------------------|-----------------------------------|
----------------------------------|-----------------------------------|
----------------------------------|-----------------------------------|
----------------------------------|-----------------------------------|
--7h9-x-x-7h9-x-7h9-x-x-x-7h9-x-x-|--7h9-x-x-7h9-x-7h9-x-x-x-10h9-x-7-|
--7h9-x-x-7h9-x-7h9-x-x-x-7h9-x-x-|--7h9-x-x-7h9-x-7h9-x-x-x-10h9-x-7-|

----------------------------------|-----------------------------------|
----------------------------------|-----------------------------------|
----------------------------------|-----------------------------------|
----------------------------------|-----------------------------------|
--7h9-x-x-7h9-x-7h9-x-x-x-7h9-x-x-|--7h9-x-x-7h9-x-7h9-x-x-x-10h9-x-7-|
--7h9-x-x-7h9-x-7h9-x-x-x-7h9-x-x-|--7h9-x-x-7h9-x-7h9-x-x-x-10h9-x-7-|

------------------------|---------------------|------------------------|
------------------------|---------------------|------------------------|
------------------------|---------4------4----|------------------------|
--9----9----10----10----|--5------0------0----|--9----9----10----10----|
--9----9----10----10----|--5------0------0----|--9----9----10----10----|
--9----9----9-----9-----|---------------------|--9----9----9-----9-----|

---------------------|------------------------|---------------------|
---------------------|------------------------|---------------------|
---------------------|------------------------|---------4------4----|
--5------5------5----|--9----9----10----10----|--5------0------0----|
--5------4------4----|--9----9----10----10----|--5------0------0----|
---------------------|--9----9----9-----9-----|---------------------|

------------------------|--------------------|
------------------------|--------------------|
------------------------|--------------------|
--9----9----10----10----|--5------5----------|
--9----9----10----10----|--5------4----------|
--9----9----9-----9-----|--------------------|

----------------------------------|-----------------------------------|
----------------------------------|-----------------------------------|
----------------------------------|-----------------------------------|
----------------------------------|-----------------------------------|
--7h9-x-x-7h9-x-7h9-x-x-x-7h9-x-x-|--7h9-x-x-7h9-x-7h9-x-x-x-10h9-x-7-|
--7h9-x-x-7h9-x-7h9-x-x-x-7h9-x-x-|--7h9-x-x-7h9-x-7h9-x-x-x-10h9-x-7-|

----------------------------------|-----------------------------------|
----------------------------------|-----------------------------------|
----------------------------------|-----------------------------------|
----------------------------------|-----------------------------------|
--7h9-x-x-7h9-x-7h9-x-x-x-7h9-x-x-|--7h9-x-x-7h9-x-7h9-x-x-x-10h9-x-7-|
--7h9-x-x-7h9-x-7h9-x-x-x-7h9-x-x-|--7h9-x-x-7h9-x-7h9-x-x-x-10h9-x-7-|

----------------------------------|-----------------------------------|
----------------------------------|-----------------------------------|
----------------------------------|-----------------------------------|
----------------------------------|-----------------------------------|
--7h9-x-x-7h9-x-7h9-x-x-x-7h9-x-x-|--7h9-x-x-7h9-x-7h9-x-x-x-10h9-x-7-|
--7h9-x-x-7h9-x-7h9-x-x-x-7h9-x-x-|--7h9-x-x-7h9-x-7h9-x-x-x-10h9-x-7-|

----------------------------------|-----------------------------------|
----------------------------------|-----------------------------------|
----------------------------------|-----------------------------------|
----------------------------------|-----------------------------------|
--7h9-x-x-7h9-x-7h9-x-x-x-7h9-x-x-|--7h9-x-x-7h9-x-7h9-x-x-x-10h9-x-7-|
--7h9-x-x-7h9-x-7h9-x-x-x-7h9-x-x-|--7h9-x-x-7h9-x-7h9-x-x-x-10h9-x-7-|

------------------------|---------------------|------------------------|
------------------------|---------------------|------------------------|
------------------------|---------4------4----|------------------------|
--9----9----10----10----|--5------0------0----|--9----9----10----10----|
--9----9----10----10----|--5------0------0----|--9----9----10----10----|
--9----9----9-----9-----|---------------------|--9----9----9-----9-----|

---------------------|------------------------|---------------------|
---------------------|------------------------|---------------------|
---------------------|------------------------|---------4------4----|
--5------5------5----|--9----9----10----10----|--5------0------0----|
--5------4------4----|--9----9----10----10----|--5------0------0----|
---------------------|--9----9----9-----9-----|---------------------|

------------------------|--------------------|
------------------------|--------------------|
------------------------|--------------------|
--9----9----10----10----|--5------5----------|

Продолжаем грести бабос на ботах в Telegram.
Только в этот раз есть вариант автоматизировать это дело, привлекая рефералов. Вы можете заработать если »

--9----9----10----10----|--5------4----------| --9----9----9-----9-----|--------------------| ----------------------------------|----------------------------------| ----------------------------------|----------------------------------| ----------------------------------|----------------------------------| ----------------------------------|----------------------------------| --2-2-2-2-2-2-2-2-2-2-2-2-2-2-2-2-|--2-2-2-2-2-2-2-2-2-2-2-2-2-2-2-2-| ----------------------------------|----------------------------------| ----------------------------------|----------------------------------| ----------------------------------|----------------------------------| ----------------------------------|----------------------------------| ----------------------------------|----------------------------------| --2-2-2-2-2-2-2-2-2-2-2-2-2-2-2-2-|--2-2-2-2-2-2-2-2-2-2-2-2-2-2-2-2-| ----------------------------------|----------------------------------| ----------------------------------|----------------------------------| ----------------------------------|----------------------------------| ----------------------------------|----------------------------------| ----------------------------------|----------------------------------| --2-2-2-2-2-2-2-2-2-2-2-2-2-2-2-2-|--2-2-2-2-2-2-2-2-2-2-2-2-2-2-2-2-| ----------------------------------|----------------------------------| --------------------------------|--------------------------------| --------------------------------|--------------------------------| --------------------------------|--------------------------------| --2-----------------------------|--2-----------------------------| --2---2-2-2-2-2-2-2-2-2-2-2-2-2-|--2---2-2-2-2-2-2-2-2-2-2-2-2-2-| --------------------------------|--------------------------------| --------------------------------|--------------------------------| --------------------------------|--------------------------------| --------------------------------|--------------------------------| --2--2--------------------------|--2--2--------------------------| --2--2--2-2-2-2-2-2-2-2-2-2-2-2-|--2--2--2-2-2-2-2-2-2-2-2-2-2-2-| --------------------------------|--------------------------------| ---------------------------|---------------------------| ---------------------------|---------------------------| ---------------------------|---------------------------| --2--x-2--x-2--x-0---2--0--|--2--x-2--x-2--x-0---2--0--| --2--x-2--x-2--x-0---2--0--|--2--x-2--x-2--x-0---2--0--| ---------------------------|---------------------------| ---------------------------|---------------------------| ---------------------------|---------------------------| ---------------------------|---------------------------| --2--x-2--x-2--x-0---2--0--|--2--x-2--x-2--x-0---0--0--| --2--x-2--x-2--x-0---2--0--|--2--x-2--x-2--x-0---0--0--| ---------------------------|---------------------------| ------------------------|---------------------|------------------------| ------------------------|---------------------|------------------------| ------------------------|---------4------4----|------------------------| --9----9----10----10----|--5------0------0----|--9----9----10----10----| --9----9----10----10----|--5------0------0----|--9----9----10----10----| --9----9----9-----9-----|---------------------|--9----9----9-----9-----| ---------------------|------------------------|---------------------| ---------------------|------------------------|---------------------| ---------------------|------------------------|---------4------4----| --5------5------5----|--9----9----10----10----|--5------0------0----| --5------4------4----|--9----9----10----10----|--5------0------0----| ---------------------|--9----9----9-----9-----|---------------------| ------------------------|---------------------|------------------------| ------------------------|---------------------|------------------------| ------------------------|---------------------|------------------------| --9----9----10----10----|--5------5------5----|--9----9----10----10----| --9----9----10----10----|--5------4------4----|--9----9----10----10----| --9----9----9-----9-----|---------------------|--9----9----9-----9-----| ---------------------|------------------------|---------------------| ---------------------|------------------------|---------------------| ---------4------4----|------------------------|---------------------| --5------0------0----|--9----9----10----10----|--5------5------5----| --5------0------0----|--9----9----10----10----|--5------4------4----| ---------------------|--9----9----9-----9-----|---------------------| ------------------------|---------------------|------------------------| ------------------------|---------------------|------------------------| ------------------------|---------4------4----|------------------------| --9----9----10----10----|--5------0------0----|--9----9----10----10----| --9----9----10----10----|--5------0------0----|--9----9----10----10----| --9----9----9-----9-----|---------------------|--9----9----9-----9-----| --------------------|----------------------------------| --------------------|----------------------------------| --------------------|----------------------------------| --5------5----------|----------------------------------| --5------4----------|--7h9-x-x-7h9-x-7h9-x-x-x-7h9-x-x-| --------------------|--7h9-x-x-7h9-x-7h9-x-x-x-7h9-x-x-| -----------------------------------|----------------------------------| -----------------------------------|----------------------------------| -----------------------------------|----------------------------------| -----------------------------------|----------------------------------| --7h9-x-x-7h9-x-7h9-x-x-x-10h9-x-7-|--7h9-x-x-7h9-x-7h9-x-x-x-7h9-x-x-| --7h9-x-x-7h9-x-7h9-x-x-x-10h9-x-7-|--7h9-x-x-7h9-x-7h9-x-x-x-7h9-x-x-| --------------------------|| --------------------------|| --------------------------|| --------------------------|| --7h9-x-x-7h9-x-7---------|| --7h9-x-x-7h9-x-7---------||








О сайтеАккордыХит-парадПоискУроки ФорумыИщу песню
ПрограммыСвежачок-сПодпискаСтатьи
Яндекс.Метрика