Mark Knopfler | The Last Laugh      Mark Knopfler  lyrics        
        
1-9 A B C D E F G H I J K L M N O P Q R S T U V W Y Z     

    



Mark Knopfler, The Last Laugh

: Mark Knopfler - (43),    (1 ),    (11),    (8)
: The Last Laugh
: 1192
: Squire (nokeltaeh@yahoo.ie)




    
The last laugh:Mark Knopfler

----------------------|---------------------|---------------|---------0--------------0----|-----0-------4-------|-------------------|--------------|
----------------------|----------2^3^2----|-------4------|------------0--------0-----0-|--------0-------5----|--------2---------|-------4------|
----------------------|-------2----------2-|-----4----4---|---------------1^2-----------|-1-----------------4-|-----2----2------|-----4----4---|
-------4---2---1-----|---------------------|---------------|------------------------------|----------------------|------------------|---------------|
-------------------.4-|---0-----------------|-2------------|------------------------------|----------------------|-0------------0---|-2------------|
----------------------|---------------------|----------------|---0-------------------------|----------------------|-------------------|--------------|
Don’t you love the sound Of the last laugh my friend Don’t you love the sound of the

-----------2>4------------|-----0-----7---0---|---------------|------------------|------0-----------|-----------|-----0---|-------0---------------|
-----------------5----------|-------0-----------|--------2------|-------4---------|---------0--------|----4------|-------0-|---------0-------------|
--------------------4>2---|-1------------------|-----2----2---|----4----4-------|------------------|-------4---|----------|----1------------------|
----------------------------|--------------------|---------------|------------4-----|------------------|-----------|----------|------------------------|
-2-------------------------|---------------------|-0------------|-2-------------2-|------------------|-6---------|-4--------|-2----------------------|
-----0---------------------|---------------------|---------------|------------------|-0---------------|------------|----------|------------------------|
last laugh at the end Down in the gutter with the mad old soldiers Down in the scuppers with the drunken sailors

--------------0-|----------------------------------|------------------------|-7------------------------|
--------2-------|-4-----4-------------------------|------------------------|----7------------7--------|
-----2----2-----|----4----------------------------|------------------------|-------8-------------9^8-|
-----------------|----------------------------------|------------------------|----------7^9-------7----|
-0---------------|---------------------------------|------------------------|---------------------------|
-----------------|-------------0-------------------|------------------------|---------------------------|
Down in the gutter with the mad old soldiers But the last laugh baby is yours

 A B E
And don’t yoy love the sound of the last laugh going down
 A B E
Games you thought you’d learned You neither lost nor won
 A B E
Dreams have crashed and burned But you’re still going on
 A B
Out on the highway with the road gang working
 E/E Eb /E C#/E B/E
Up on the mountain with the cold wind blowing
 A B
Out on the highway with the road band working
 E B
But the last laugh baby is yours 
 A
And don’t you love the sound
 B E
Of the last laugh going down

SOLO:
--------------------------------------|----------------|---|-------------------------|----------------7------|---|------------------------------------|
-----7~(9)---7^5^4--------7-5-4-|-----------------|---|------2-5---4-5^4^2-|---------4---7-----9---|---|-7-10^9^7-------7-10^9^7-----|
-x---------------------4^6----------|-4^6>8---4---|---|-0^1-------------------|-------x----------------|---|-------------9^7--------------9-6-|
--------------------------------------|--------------6-|---|------------------------|-----x------------------|---|------------------------------------|
--------------------------------------|-----------------|---|------------------------|------------------------|---|------------------------------------|
--------------------------------------|-----------------|---|------------------------|------------------------|---|------------------------------------|

 A B
They had you crying but you came up smiling
 E/E Eb/E C#/E Bb/E
They had you crawling and you came up flying
 A B
They had you crying and you came up smiling
 E B
And the last laugh baby is yours
 A
And don’t you love the sound
 B E
Of the last laugh going down
 A
Yeh don’t you love the sound
 B E
Of the last laugh going down
    








-
-
.