Mark Knopfler | She`s Gone      Mark Knopfler  lyrics        
        
1-9 A B C D E F G H I J K L M N O P Q R S T U V W Y Z     

    



Mark Knopfler, She`s Gone

: Mark Knopfler - (43),    (1 ),    (11),    (8)
: She`s Gone
: 1100
: Squire (nokeltaeh@yahoo.ie)




    
She's gone
Mark Knopfler
TablEdited by Didier Buty
Tuning : C G D G B E    Time Signature: 3/4

 |   |   |    |   |   |    |   |   |    |   |   |    |   |   |    |   |   |    
|------------|------3-2---|0-------0---|------------|------------|------3-5-2-|
|------------|----0-----3-|0---------0-|3-0-----0---|------------|----0---3---|
|------------|0-2-----2---|0-----------|----2-0---0-|------------|0-2---------|
|----------0-|0-----------|------------|3-----------|2---0-----0-|0-----------|
|------------|------------|------------|------------|0---2-------|------------|
|------------|------------|------------|------------|------------|------------|

 |   |   |    |   |   |    |   |   |    |   |   |    |   |   |    |   |   |    
|0-----------|------------|------------|------3-2---|0-------0---|------------|
|--------3---|----0-3-1-0-|------------|----0-----3-|0---------0-|3-0-----0---|
|0-------0---|0-2-----0---|2-------2---|0-2-----2---|0-----------|----2-0---0-|
|----------0-|0-----------|0-------0-0-|0-----------|------------|3-----------|
|------------|------------|------------|------------|------------|------------|
|------------|------------|------------|------------|------------|------------|

 |   |   |    |   |   |    |   |   |    |   |   |    |   |   |    |   |   |    
|------------|------3-5-2-|0-------0---|------------|------------|------------|
|------------|----0---3---|------------|----0-3-1-0-|------------|----0---1---|
|------------|0-2---------|0-----------|0-2---------|2-------2---|0-2---0---0-|
|2---0-----0-|0-----------|----------0-|0-----------|0-------0-0-|0-------2---|
|0---2-------|------------|------------|------------|------------|------------|
|------------|------------|------------|------------|------------|------------|

 |   |   |    |   |   |    |   |   |    |   |   |    |   |   |    |   |   |    
|------------|------------|------------|------------|------------|------------|
|------------|0-----------|------------|------0-1---|------------|0-----------|
|----------2-|----------0-|2-0---------|----0-----0-|----------2-|------------|
|3-------3---|0-3-2-------|----3---2---|0-3-----2---|0-------3---|2-----------|
|7-----------|----4-------|5-----------|------------|10----------|------------|
|------------|------------|------------|------------|------------|------------|

 |   |   |    |   |   |    |   |   |    |   |   |    |   |   |    |   |   |    
|------------|------------|------------|------------|------------|------------|
|0-------0---|1-0-1-------|------------|0---0-------|------------|------------|
|------------|0-----------|------------|--2---------|------------|2-0-2-------|
|0---------2-|2---------2-|2---3-----0-|0---------0-|2-------2---|2---------2-|
|------------|--------5---|5-----------|10------4---|4---------5-|5-------2---|
|------------|------------|------------|------------|------------|------------|

 |   |   |    |   |   |    |   |   |    |   |   |    |   |   |    |   |   |    
|------------|------------|------------|------------|------------|------------|
|------------|------------|------------|------------|------------|------------|
|----------0-|----------0-|2---------0-|----------0-|2---------0-|------------|
|0-------3---|2-------3---|0-------3---|2-------3---|0-------3---|2---------3-|
|2-----------|4-----------|------------|4-----------|2-----------|------0-4---|
|------------|------------|------------|------------|------------|------------|

 |   |   |    
|------------|
|------3-----|
|------------|
|2-----3-----|
|10----------|
|------------|
    








-
-
.