Mark Knopfler | Sailing To Philadelphia  (2)      Mark Knopfler  lyrics        
        
1-9 A B C D E F G H I J K L M N O P Q R S T U V W Y Z     

    



Mark Knopfler, Sailing To Philadelphia (2)

: Mark Knopfler - (43),    (1 ),    (11),    (8)
: Sailing To Philadelphia (2)
: 896
: Squire (nokeltaeh@yahoo.ie)




    
Sailing to Philadelphia:M Knopfler

Intro:
 |-------------|--------------0---------------|--------------0------------|-------------0---------|------------0----------|------------0-----------|
 |-------------|-----------2-------------2---|-----------2-----------2---|----------2----------2-|---------2----------2-|---------2----------2---|
G1|-------------|--------4------------4-------|--------4-----------4------|-------4----------4----|------4----------4----|------4----------4------|
 |-------------|---4-4-----------4----------|---4-4-----------4---------|---2-2---------2------|-2-2----------2-------|-4-4----------4---------|
 |-------------|------------------------------|----------------------------|------------------------|-----------------------|--------------------------|
 |-------------|------------------------------|----------------------------|------------------------|-----------------------|--------------------------|
 |
 |
 |---------------|---------------------------|-----------------------------|------------------------|-----------------------|--------------------------|
 |-----------0--|----------------------------|----------------------------|-------------------------|-----------------------|--------------------------|
G2|---------2----|----------------------------|----------------------------|-------------------------|->6---------4-4------|--------------------------|
 |------4-------|----------------------------|----------------------------|-------------------------|--------7--------------|-------4---4-------------|
 |---4----------|----------------------------|----------------------------|-------------------------|------------------------|--------------------------|
 |---------------|----------------------------|----------------------------|-------------------------|------------------------|-------------------------|

|-------------0-----------|------------2-----------|------------4-----------|
|----------2-----------2-|---------5------------5-|---------5------------5-|
|-------4-----------4----|------4------------4----|------4------------4----|
|-4-4-----------4-------|-2-2------------2-------|-2-2-----------2-------|
|-------------------------|-------------------------|-------------------------|
|-------------------------|-------------------------|-------------------------|
|
|
|-----------------------|-------------------------|---------------------------|
|----------------2-----|-------------------------|---------------------------|
|-------------2--------|-4-----------------------|---------------------------|
|----------4-----------|-------------------------|---------------------------|
|-----------------------|-------------------------|---------------------------|
|-----------------------|-------------------------|---------------------------|

Chant,sing (verse1)
-------------0---------|--------------2----------|-----------0---------|-----------0-----------------------|-0---------0---------------|------------0---------|
---------2-----------2-|----------2-----------2-|--------2---------2-|---------2------------3-2-------2-|---------------2---------2-|---------3----------3-|
------4-----------4----|-------4-----------4----|------4---------4---|------4------------2----------2----|--------4------------4-----|------2----------2----|
-4-4-----------4-------|-4-4-----------4-------|-4-4---------4------|-2-2---------4-4----------4------|-----2-------------2-------|-4-4-----------4------|
------------------------|-------------------------|----------------------|-----------------------------------|-----------------------------|-----------------------|
------------------------|-------------------------|----------------------|-----------------------------------|-----------------------------|-----------------------|

------------------------------------------|-------------------------------0----------|------|-----------2----------|-----------2---------|
----------2----------------3-2--------2-|---------2-----------------3-----------3-|---2-|---------3----------3-|--------3----------3-|
-------4----4-----------2----------2----|------4----4-----------2-----------2-----|--2--|------4----------4---|------4----------4----|
-2-2----------2---4-4----------4-------|-2-2---------2---4-4-----------4--------|-4---|-2-2----------2------|-2-2----------2------|
------------------------------------------|-------------------------------------------|------|-----------------------|----------------------|
------------------------------------------|-------------------------------------------|------|-----------------------|----------------------|

verse2
-------------0-----------|------------0--------|-------------0---------|------------------------0----------|-----------------|----------0---------|------------------|
----------2-----------2-|---------2---------2-|----------2----------2-|---------2----------3-----------2-|---------2------|--------3---------2-|---------2-------|
-------4-----------4----|------4----------4---|-------4----------4----|-------4---------2-----------2----|------4----4----|-----2---------2----|------4----4----|
-4-4-----------4-------|-4-4-----------4-----|-4-4-----------4-------|-2-2-------4-4-----------4-------|-2-2---------2-|4-4---------4------|-2-2----------2-|
-------------------------|----------------------|------------------------|------------------------------------|-----------------|--------------------|------------------|
--------------------------|----------------------|------------------------|------------------------------------|-----------------|--------------------|-----------------|
--------------------------|----------------------|------------------------|------------------------------------|-----------------|--------------------|-----------------|

----------------------|---------0----|------------0----------|------|-----------2-----------|---------------2-----------|
--------3-2-------2-|-------------2-|--------3-----------3-|-2---|---------5-----------5-|-----------5------------5-|
------2---------2----|------4-------|------2----------2----|-2----|------4----------4-----|-------4-------------4----|
-4-4---------4------|-2-2----------|-4-4----------4-------|-4----|-2-2---------2--------|-2-2--------------2-------|
---------------------|----------------|-----------------------|-------|-----------------------|----------------------------|
---------------------|----------------|-----------------------|-------|-----------------------|----------------------------|







refrain
A E | F#m D | A E | D A | E | F#m |----------------------|------|----------|------------|-----------|
 |-3--------3-2-----2-|---2-|--------5-|--------5---|-3---2---|
 |-------2---------2---|--2--|------4---|----4-------|-2---2---|
 |-----4---------4-----|-4---|-2-2------|-2----------|-4---4---|
 |----------------------|-----|------------|------------|----------|
 |----------------------|-----|------------|------------|----------|

Solo
|----------0---------|--------------0---------|--------------0--------|-------------0---------|-----------0--------|------------0--------|
|--------2---------2-|-----------2---------2-|----------2----------2-|----------2---------2-|---------2--------2-|---------2--------2-|
|------4--------4----|--------4---------4----|-------4----------4----|-------4---------4----|-------4--------4---|------4---------4---|
|-2-2--------24------|-2-2-----------2------|-4-4-----------4------|-4-4----------4-------|-2-2---------2-----|-2-2----------2----|
|----------------------|-----------------------|------------------------|------------------------|--------------------|---------------------|
|----------------------|-----------------------|------------------------|------------------------|--------------------|---------------------|
|
|
|-----------------------|--------------------|------------------------|-------------------------|----------------|--------------------------|
|-----------------------|--------------------|------------------------|-------------------------|-------------5-|--------------------------|
|-----------------------|--------2---4------|--4>6-----------------|--------------------------|-4>6---4-----|---6----------------------|
|-----------------------|------2------------|------------------------|--------------------------|----------------|--------------------------|
|-----------------------|--------------------|------------------------|--------------------------|----------------|-------------------------|
|-----------------------|--------------------|------------------------|--------------------------|----------------|-------------------------|

|------------0-------|-------------0---------|------------2----------|-----------4---------|
|---------2--------2-|---------2----------2-|---------5-----------5-|--------5---------5-|
|------4--------4----|------4----------4----|------4----------4-----|-----4---------4----|
|-4-4--------4------|-4-4-----------4------|-2-2----------2-------|-2-2---------2------|
|---------------------|-----------------------|-----------------------|----------------------|
|---------------------|-----------------------|-----------------------|----------------------|
|
|
|---------------------|-----------------------|-----------------------|----------------------|
|----------2---------|-----------------------|-----2-----------------|----------------------|
|---2^4-----2--4-4-|----------6>4--------|--2----4--------------|----------------------|
|---------------------|-----------------------|-----------------------|----------------------|
|---------------------|-----------------------|-----------------------|----------------------|
|---------------------|-----------------------|-----------------------|----------------------|

Verse3 and 4 are the same than verse2
Refrain
A E | F#m D | A E | D A | E | F#m | D F#m | E D | D | D F#m

Solo
---|---|-2----------|----------------------|--------------0-------|---|----2-0-2-0-|---|-----------------|------------------------|--|------2----2----------2--------|
-2-|---|---2---5---|----------------------|------2-------0^2-0-|---|-2-----------|---|----2-------------|-----------------------|--|-0^2----2---2-5~(7)---5~(7)|
-2-|---|------------|-4~(6)~4-2-4~(6)-|-4^2----4------------|---|-------------|---|---2---4-2-4>6-|-2-4~(5)~4---2^4---|--|--------------------------------|
---|---|-------------|---------------------|------------------------|---|-------------|---|-2---------------|------------------------|--|--------------------------------|
---|---|-------------|---------------------|------------------------|---|-------------|---|------------------|------------------------|--|--------------------------------|
---|---|-------------|---------------------|------------------------|---|-------------|---|------------------|------------------------|--|--------------------------------|

---|-0------0------|---|--------------|---|---|----------------|---------|-0------|------5^4---|-------2------2------|---|---|------------------------------------|
---|-3>2---3>2---|---|-------------|---|---|-----------------|-5>7---|----2---|----5--------|---------0-2----2---|---|---|2>14-14---15^14-12------------|
---|-----------------|---|------2-1---|---|---|-4-4^2----2---|-4>6---|---------|-6----------|-2^4-----------------|---|---|2>15-15----------------14-12---|
---|-----------------|---|-0^2-------|---|----|---------4-----|----------|---------|------------|----------------------|---|---|-------------------------------------|
---|-----------------|---|------------|---|----|----------------|----------|---------|------------|----------------------|---|---|-------------------------------------|
---|-----------------|---|------------|---|----|----------------|----------|---------|------------|----------------------|---|---|-------------------------------------|
    








-
-
.