Mark Knopfler | Local Hero (wild Theme)  (2)      Mark Knopfler  lyrics        
        
1-9 A B C D E F G H I J K L M N O P Q R S T U V W Y Z     

    



Mark Knopfler, Local Hero (wild Theme) (2)

: Mark Knopfler - (43),    (1 ),    (11),    (8)
: Local Hero (wild Theme) (2)
: 1010
: Squire (nokeltaeh@yahoo.ie)




    
Theme From Local Hero
Mark Knopfler
From the soundtrack of the film "Local Hero" and featured on the Dire Straits "Alchemy" album (Warner Brothers 1984)
Arranged and Tabbed by Tony Willis  2/2/00
 
Tuning : E A D G B E    Time Signature: 4/4

 |   |   |   |    |   |   |   |    |   |   |   |    |   |   |   |    
|----------------|2-------0-----2-|--------------0-|2-----------5---|
|----------------|3-----------3---|------------3---|----3-----------|
|------------2---|2-----2---2-----|2---------2-----|--2---2---2---2-|
|----------------|0---0-----------|--------4-------|0-------0-------|
|----------------|--0-------------|----------------|----------------|
|----------------|----------------|----------------|----------------|

 |   |   |   |    |   |   |   |    |   |   |   |    |   |   |   |    
|5---------------|5-------4-----5-|--------------4-|5-------------4-|
|----3-----------|----7-----------|------------7---|------------7---|
|--2---2---------|--6---6-----6---|6---------6-----|----------6-----|
|0-------0-------|7---------7-----|--------7-------|----------------|
|----------------|----------------|----------------|----------------|
|----------------|----------------|----------------|----------------|

 |   |   |   |    |   |   |   |    |   |   |   |    |   |   |   |    
|5-----7p4---2---|3-------2-----3-|------------0-2-|3-----------0-2-|
|----------------|----0-------0---|0-----------0---|----0-----0-----|
|----------------|--0---0---0-----|------------0---|--0---0---------|
|----------------|----------------|----------------|----------------|
|----------------|----------------|----------------|----------------|
|----------------|0---------------|----------------|--------0-------|

 |   |   |   |    |   |   |   |    |   |   |   |    |   |   |   |    
|3-----5p2-------|--------0-----2-|--------0-----2-|2-------0-----2-|
|------------3---|------3---------|------3---------|2---2-------2---|
|----------------|2---2-------2---|2---2-------2---|0-0---0---0-----|
|----------------|--0-------0-----|--0-------0-----|----------------|
|----------------|----------------|----------------|0---------------|
|----------------|----------------|----------------|----------------|

 |   |   |   |    |   |   |   |    |   |   |   |    |   |   |   |    
|3-----5p2---0---|3-------2-----3-|--------0---3---|2-------0-----2-|
|----------------|----0-------0---|0-------0-------|------------3---|
|----------------|--0---0---0-----|--------0-------|------2---2-----|
|----------------|0---------------|----------------|----0-----------|
|----------------|----------------|----------------|--0-------------|
|----------------|----------------|----------------|----------------|

 |   |   |   |    |   |   |   |    |   |   |   |    |   |   |   |    
|--------0-----2-|2-------0-----2-|3-----5p2---0---|----------------|
|------3---------|2---2-------2---|----------------|3-------2-----3-|
|2---2-------2---|0-0---0---0-----|----------------|----4-------4---|
|--0-------0-----|----------------|----------------|--4---4---4-----|
|----------------|0---------------|----------------|----------------|
|----------------|----------------|----------------|4---------------|

 |   |   |   |    |   |   |   |    |   |   |   |    |   |   |   |    
|----------------|----------------|----------------|----------------|
|------------3---|3-----3-2-----3-|------------2---|3-----3-2-----3-|
|--------4-------|----4-------4---|--------4-------|----4-------4---|
|4-----4---------|--4-------4-----|4---------------|--4-------4-----|
|----------------|----------------|----------------|2---------------|
|----------------|3---------------|----------------|----------------|

 |   |   |   |    |   |   |   |    |   |   |   |    |   |   |   |    
|----------------|----------------|----------------|----------------|
|------------2---|3-------2-----2h|2-----0h0-------|--------1010----|
|--------4-------|----4-----------|------------2---|111111----------|
|4---------------|--4---4---------|----------------|----------------|
|----------------|2---------------|----------------|----------------|
|----------------|----------------|----------------|----------------|

 |   |   |   |    |   |   |   |    |   |   |   |    |   |   |   |    
|----------------|----------------|----------------|----------------|
|------------10--|12--1210--------|----------------|------------10--|
|--------11------|--------11------|--------------11|--------11------|
|----------------|----------------|----------------|----------------|
|----------------|----------------|----------------|----------------|
|----------------|----------------|----------------|----------------|

 |   |   |   |    |   |   |   |    |   |   |   |    |   |   |   |    
|----------------|----------------|----------------|----------------|
|----------------|----------------|----------------|----------------|
|9-9---9p9-------|----------7-9---|117-------------|--------------6-|
|----------------|--------7-------|----7---9-----9p|9---------------|
|----------------|----------------|----------------|----------------|
|----------------|----------------|----------------|----------------|

 |   |   |   |    |   |   |   |    |   |   |   |    |   |   |   |    
|----------------|----------------|------------109-|7---7-----------|
|----------------|--------1010----|--------7-10----|------107-------|
|--------7---9---|111111----------|------7h--------|----------------|
|----------------|----------------|----------------|----------------|
|----------------|----------------|----------------|----------------|
|----------------|----------------|----------------|----------------|

 |   |   |   |    |   |   |   |    |   |   |   |    |   |   |   |    
|----------------|----------------|----------------|----------------|
|----------------|------------10--|----------------|----------------|
|--------------9-|--------11------|9-----9p9-------|----------7-9---|
|----------------|----------------|----------------|--------7-------|
|----------------|----------------|----------------|----------------|
|----------------|----------------|----------------|----------------|

 |   |   |   |    |   |   |   |    |   |   |   |    |   |   |   |    
|----------------|----------------|----------------|101010--9-------|
|------------7---|----------------|------------7-10|--------------10|
|117-------7-----|9-----7h7-------|----------7h----|----------------|
|----7---9-------|----------------|----------------|----------------|
|----------------|----------------|----------------|----------------|
|----------------|----------------|----------------|----------------|

 |   |   |   |    |   |   |   |    |   |   |   |    |   |   |   |    
|----------------|----------------|----------------|141210--9-------|
|12----1010----8p|8-108---7-------|----7-----------|----------10----|
|----------------|----------7-----|--7-----9-------|------------11--|
|----------------|------------7---|9---------------|----------------|
|----------------|----------------|----------------|----------------|
|----------------|----------------|----------------|----------------|

 |   |   |   |    |   |   |   |    |   |   |   |    |   |   |   |    
|----------------|----------------|----------------|----------------|
|12----1010----8p|8-108---7-------|----------------|----------------|
|----------------|----------7-----|--7-11--9-------|----------------|
|----------------|------------7---|9---------------|----------------|
|----------------|----------------|----------------|----------------|
|----------------|----------------|----------------|----------------|

 |   |   |   |    |   |   |   |    |   |   |   |    |   |   |   |    
|----------------|----------------|----------------|----------------|
|----------------|--------12--12--|10----------10--|12--1210--------|
|----------------|111111----------|--------11------|--------11------|
|------------7---|----------------|----------------|----------------|
|----------------|----------------|----------------|----------------|
|----------------|----------------|----------------|----------------|

 |   |   |   |    |   |   |   |    |   |   |   |    |   |   |   |    
|----------------|----------------|----------------|----------------|
|----------------|------------10--|----------------|----------------|
|--------------11|--------11------|9-----9p9-------|----------7-9---|
|----------------|----------------|----------------|--------7-------|
|----------------|----------------|----------------|----------------|
|----------------|----------------|----------------|----------------|

 |   |   |   |    |   |   |   |    |   |   |   |    |   |   |   |    
|----------------|----------------|----------------|----------------|
|------------7---|10--------------|----------------|----------------|
|117-------7-----|9---------------|0---------------|----------------|
|----7---9-------|----------------|0---------------|5---4---2---0---|
|----------------|----------------|2---------------|----------------|
|----------------|----------------|3---------------|----------------|

 |   |   |   |    
|2---------------|
|3---------------|
|2---------------|
|0---------------|
|0---------------|
|----------------|
    








-
-
.