Mark Knopfler | Just Instinct      Mark Knopfler  lyrics        
        
1-9 A B C D E F G H I J K L M N O P Q R S T U V W Y Z     

    



Mark Knopfler, Just Instinct

: Mark Knopfler - (43),    (1 ),    (11),    (8)
: Just Instinct
: 1025
: Squire (nokeltaeh@yahoo.ie)




    
Just Instinct
Mark Knopfler
Transcribed by Cyril Calmes and TablEdited by Didier Buty
Tuning : E A D G B E    Time Signature: 4/4
 |   |   |   |    |   |   |   |    |   |   |   |    |   |   |   |    
|----------------|----------------|----------------|----------------|
|----------------|------8p7-------|--108p7---8p7---|----------------|
|------9p7-------|--7h9-----7h9---|9-------7-----9p|7---------------|
|7h9h10----9h10--|10--------------|----------------|--109p7-109p7-6-|
|----------------|----------------|----------------|----------------|
|----------------|----------------|----------------|----------------|
 |   |   |   |    |   |   |   |    |   |   |   |    |   |   |   |    
|----------------|----------------|----------------|----------5-----|
|----------------|--5---5-8p5---5h|6-------5-------|5h6---5h6---6p5-|

Telegram.
, . »

|----------------|-5--7-------7---|--7-5h7---7-5h7-|----7-----------| |--7-------------|5---------------|----------------|----------------| |7---------------|----------------|----------------|----------------| |----------------|----------------|----------------|----------------|  |   |   |   |    |   |   |   |    |   |   |   |    |----------------|----------------|0---------------| |6p5-----5-------|----------------|0---------------| |------5---7-4---|----------------|1---------------| |----5---------7-|5---------------|2---------------| |----------------|----------------|2---------------| |----------------|----------------|0---------------|








-
-
.