Mark Knopfler | Imelda      Mark Knopfler  lyrics        
        
1-9 A B C D E F G H I J K L M N O P Q R S T U V W Y Z     

    



Mark Knopfler, Imelda

: Mark Knopfler - (43),    (1 ),    (11),    (8)
: Imelda
: 906
: Squire (nokeltaeh@yahoo.ie)




    
Imelda
Mark Knopfler
TablEdited by Didier Buty from the Tab book "Golden Heart"
Tuning : E A D G B E    Time Signature: 4/4
 |   |   |   |    |   |   |   |    |   |   |   |    |   |   |   |    
|3-5-5-3-5-5-3-5-|--3-5-5-3-------|3-5-5-3-5-5-3-5-|--3-5-5-3---3---|
|3-3-3-3-3-3---3-|3-3---3---6-3---|3-3-3-3-3-3---3-|3-3---3---6-3---|
|----------------|----------------|----------------|----------------|
|--0-----0-0---0-|0-----0-------0-|--0-----0-0---0-|0-----0-------0-|
|----------------|----------------|----------------|----------------|
|----------------|----------------|----------------|----------------|
 |   |   |   |    |   |   |   |    |   |   |   |    |   |   |   |    
|----------------|----------------|----------------|----------------|
|----3-------3---|------------3---|----3-------3---|----3-------3---|
|--2---2---2-----|----------0---0-|--0---0---0---0-|--0---0---0---0-|
|0-------------0-|--------3-------|----------------|----------------|
|--------3-------|----------------|1-------1-------|2-------2-------|
|----------------|----------------|----------------|----------------|
 |   |   |   |    |   |   |   |    |   |   |   |    |   |   |   |    
|----------------|----------------|----------------|----------------|
|----3-------3---|------------3---|----3-------3---|----3-------3---|
|--2---2---2-----|----------0---0-|--0---0---0---0-|--0---0---0---0-|
|0-------------0-|--------3-------|----------------|----------------|
|--------3-------|----------------|1-------1-------|2-------2-------|
|----------------|----------------|----------------|----------------|
 |   |   |   |    |   |   |   |    |   |   |   |    |   |   |   |    
|----------------|----------------|----------------|----------------|
|----3-------3---|------------3---|----3-------3---|----3-------3---|
|--2---2---2-----|----------0---0-|--0---0---0---0-|--0---0---0---0-|
|0-------------0-|--------3-------|----------------|----------------|
|--------3-------|----------------|1-------1-------|2-------2-------|
|----------------|----------------|----------------|----------------|
 |   |   |   |    |   |   |   |    |   |   |   |    |   |   |   |    
|----------------|----------------|----------------|----------------|
|----3-------3---|------------3---|----3-------3---|----3-----3-1---|
|--2---2---2-----|----------0---0-|--0---0---0---0-|--0---0-------3-|
|0-------------0-|--------3-------|----------------|----------------|
|--------3-------|----------------|1-------1-------|2-------2-------|

Telegram.
, . »

|----------------|----------------|----------------|----------------|  |   |   |   |    |   |   |   |    |   |   |   |    |   |   |   |    |----------------|----------------|----------------|----------------| |----3-----------|----3-----------|----3-------3---|----3---------3-| |----2-----------|----2---2-2-0---|--2---2---2---0-|--0---0-----0---| |0---0-------3---|0-------------3-|0---------------|----------0-----| |----------3---3-|----------------|--------3-------|----------------| |----------------|----------------|----------------|3-------3-------|  |   |   |   |    |   |   |   |    |   |   |   |    |   |   |   |    |----------------|----------------|----------------|----------------| |----3-------3---|----3-------3---|----3-----------|----------------| |--0---0---0---0-|--0---0---0---0-|----2-----0-0---|--------0---0---| |----------------|----------------|0---0---3-----3-|0---3-0---3-----| |3-------3-------|2-------2-------|----------------|----------------| |----------------|----------------|----------------|----------------|  |   |   |   |    |   |   |   |    |   |   |   |    |   |   |   |    |----------------|----------------|----------------|----------------| |----3-----------|----------------|----------------|----------------| |----2-----0-0---|--------0-------|--------------5-|--7-7-5-7---7---| |0---0---3-----3-|0---3-0---3-0---|--------------5-|----5-5-5---5---| |----------------|--------------3-|4-5-5-4-5-------|----------------| |----------------|----------------|2-3-3-2-3-------|----------------|  |   |   |   |    |   |   |   |    |   |   |   |    |   |   |   |    |----------------|----------------|----------------|----------------| |----------------|----------------|----------------|----------------| |----------------|------0-----5-5-|--------------5-|--7-7-5-7---5-0-| |7-7-7-5-7-----5-|--7-7-0-7-7-5-5-|--------------5-|----5-5-5---5-0-| |5-5-5-3-5-----3-|--5-5---5-5-----|4-5-5-4-5-------|----------------| |----------------|----------------|2-3-3-2-3-------|----------------|  |   |   |   |    |   |   |   |    |----------------|----------------| |----------------|--------1-------| |2---2---5---2---|0---0-2---2-0---| |2---2---5---2---|--3-------------| |----------------|----------------| |----------------|----------------|








-
-
.