Mark Knopfler | Golden Heart  (2)      Mark Knopfler  lyrics        
        
1-9 A B C D E F G H I J K L M N O P Q R S T U V W Y Z     

    



Mark Knopfler, Golden Heart (2)

: Mark Knopfler - (43),    (1 ),    (11),    (8)
: Golden Heart (2)
: 686
: Squire (nokeltaeh@yahoo.ie)




    
Golden Heart
Mark Knopfler
TablEdited by Didier Buty
Version tire d'un fichier MIDI
Tuning : E A D G B E  Time Signature: 4/4
| | | | | | | | | | | | | | | | 
|----------------|----------------|3-----5-3-2-----|0---------3---0-|
|------0---------|----------------|3---------------|1---------------|
|--0-2-0---------|2-----0-------0-|--------------0-|----------------|
|--0-4-----------|4---0-----------|----------------|----------------|
|----------------|----------------|----------------|----------------|
|----------------|----------------|----------------|----------------|
| | | | | | | | | | | | | | | | 
|--0-3-----------|----------------|----------------|----------------|
|3-----0---0-----|3-----0---------|------1---0-----|--------0-------|
|0-----------2-0-|----2-----0-----|--------------2-|----2-----0-----|
|----------------|----------------|--0-2-----------|0-4---------0---|
|----------------|----------------|----------------|----------------|
|----------------|----------------|----------------|----------------|
| | | | | | | | | | | | | | | | 
|----------------|----------------|----------------|------------3---|
|----1-0---------|----------------|----------------|------0---3---0-|
|--0-----2---0-0-|----------------|----------------|--0-2-----------|
|2-------0-------|----------------|----------------|----------------|
|----------------|----------------|----------------|----------------|
|----------------|----------------|----------------|----------------|
| | | | | | | | | | | | | | | | 
|----------------|3-----5-3-2-----|0-----------3-0-|--0-3-----------|
|----3-0-------0-|3---------------|1---------1-----|3-----0---0-----|
|2-----0-------0-|--------------0-|----------------|0-----------2-0-|
|4---------------|----------------|----------------|9---------------|
|----------------|----------------|----------------|----------------|
|----------------|----------------|----------------|----------------|
| | | | | | | | | | | | | | | | 
|----------------|----------------|----------------|----------------|
|3-----0---------|----1-----0-----|--------0-------|1-----0---------|
|----2-----0-----|--0-------------|2-------0-------|0-------2-----0-|
|------------0---|2-------------2-|0-------0-----2-|--------0-------|
|----------------|----------------|9---------------|----------------|
|----------------|----------------|----------------|----------------|
| | | | | | | | | | | | | | | | 
|----------------|----------------|----------------|2-------3-------|
|----------------|----------------|------0---3-----|3-------3-------|
|0---------------|----------------|----0-------0-2-|--------4---0---|
|0---------------|----------------|--0-------------|--0-------------|
|2---------------|----------------|----------------|----------------|
|----------------|----------------|3---------------|3-------3-------|
| | | | | | | | | | | | | | | | 
|----------------|0-----0-----3-0-|----3-----------|----------------|
|----3-0-----0---|----1-----1-----|3-----0---------|3-----0-----0-3-|
|0---------0-----|--0-------------|----------0-2-0-|----2-----0-----|
|--0-----0-------|----------------|--------0-------|--0-----0-------|
|----------------|----------------|----------------|----------------|
|3---------------|----------------|3---------------|3---------------|
| | | | | | | | | | | | | | | | 
|----------------|----------------|----------------|----------------|
|----1-0---------|----------------|0-----0-1-0-----|--3-1-0---------|
|--------0-2-0---|2-----------0-2-|0---0-------2-0-|2-----------0---|
|----------------|0---0-4---0-----|----------------|----------0-----|
|----------------|--0-------------|----------------|----------------|
|3---------------|----------------|----------------|2---------------|
| | | | | | | | | | | | | | | | 
|3-----5-3-2-----|0-----0-----3-0-|----3-----------|----------------|
|--------------1-|----1-----1-----|3-----0---------|3-----0-------0-|
|----0---0---0---|--0-----0-------|----0---0---2-0-|----2-------0---|
|--0-------------|----------------|--0-------0-----|--0-------0-----|
|----------------|3---------------|----------------|----------------|

Telegram.
, . »

|----------------|----------------|3---------------|3---------------| | | | | | | | | | | | | | | | | |----------------|----------------|----------------|----------------| |----1-0---------|------0---------|----1-0---------|------3---3-----| |--0-----2---0---|2-----------0---|--0-----2---0-0-|----0-------0---| |----------2-----|0---4-----------|--------0---0---|--------------0-| |3---------------|--0-5-----------|3---------0-----|----------------| |----------------|--------3-------|----------------|----------------| | | | | | | | | | | | | | | | | |----------------|----------------|2-------3-------|----------------| |------3---3-----|------0---3-----|3-------0-------|----3-0-----0---| |----0-------0---|----0-------0-2-|--------7---0---|0---------0-----| |--0-------------|--0-------------|--0-------------|--0-----0-------| |----------------|----------------|----------------|----------------| |3---------------|3---------------|3-------3-------|3---------------| | | | | | | | | | | | | | | | | |0-----0-----3-0-|----3-----------|----------------|----------------| |----1-----1-----|3-----0---------|3-----0-----0-3-|----1-0---------| |--0-------------|----------0-2-0-|----2-----0-----|--------0-2-0---| |----------------|--------0-------|--0-----0-------|----------------| |----------------|----------------|----------------|----------------| |----------------|3---------------|3---------------|3---------------| | | | | | | | | | | | | | | | | |----------------|----------------|----------------|3-----5-3-2-----| |----------------|0-----0-1-0-----|--3-1-0---------|--------------1-| |2-----------0-2-|0---0-------2-0-|2-----------0---|----0---0---0---| |0---0-4---0-----|----------------|----------0-----|--0-------------| |--0-------------|----------------|----------------|----------------| |----------------|----------------|2---------------|----------------| | | | | | | | | | | | | | | | | |0-----0-----3-0-|----3-----------|----------------|----------------| |----1-----1-----|3-----0---------|3-----0-------0-|----1-0---------| |--0-----0-------|----0---0---2-0-|----2-------0---|--0-----2---0---| |----------------|--0-------0-----|--0-------0-----|----------2-----| |3---------------|----------------|----------------|3---------------| |----------------|3---------------|3---------------|----------------| | | | | | | | | | | | | | | | | |----------------|----------------|----------------|----------------| |------0---------|----1-0---------|------3---3-----|------3---3-----| |2-----------0---|--0-----2---0-0-|----0-------0---|----0-------0---| |0---4-----------|--------0---0---|--------------0-|--0-------------| |--0-5-----------|3---------0-----|----------------|----------------| |--------3-------|----------------|----------------|3---------------| | | | | | | | | | | | | | | | | |0-----0-2-----2-|----3---3-0---0-|----3-8---------|------5---------| |----1-------3---|0-3---0-----0---|1-3-------1-3-0-|--0-1-----1-0---| |--0-------2-----|----------------|----------------|2-------------2-| |----------------|----------------|----------------|----------------| |----------------|----------------|----------------|----------------| |----------------|----------------|----------------|----------------| | | | | | | | | | | | | | | | | |----3-----2-5-2-|0-3-7-3-0---0---|0---3-8---3-0---|----------------| |1-3---1-3-------|----------1---1-|--1-------------|0---------------| |----------------|----------------|----------------|------0-----2---| |----------------|----------------|----------------|----------------| |----------------|----------------|----------------|----------------| |----------------|----------------|----------------|----------------| | | | | | | | | |----------------|----------------| |----------------|----------------| |----------------|----------------| |--------------0-|0---------------| |----------------|----------------| |----------------|----------------|








-
-
.