Mark Knopfler | Are We In Trouble Now      Mark Knopfler  lyrics        
        
1-9 A B C D E F G H I J K L M N O P Q R S T U V W Y Z     

    



Mark Knopfler, Are We In Trouble Now

: Mark Knopfler - (43),    (1 ),    (11),    (8)
: Are We In Trouble Now
: 1086
: Squire (nokeltaeh@yahoo.ie)




    
Are We in trouble now
Mark Knopfler
TablEdited by Didier Buty from the Tab book "Golden Heart"
Ceci n'est que le dbut de la chanson. "I'm working on it"
Tuning : C G D G B E  Time Signature: 4/4
| | | | | | | | | | | | | | | | 
|0-2-2-0-2-----0-|2-0-0-----2-0---|------0---------|0---------------|
|3-----------3---|2-----2-------2-|3---3-------3-0-|2---------------|
|2---------2-----|0-------2-------|2-2-------------|0---------------|
|0---------------|2---------------|----------------|0---------------|
|----------------|0---------------|----------------|2---------------|
|----------------|----------------|----------------|----------------|
| | | | | | | | | | | | | | | | 
|------0---2-----|----------------|--------0-------|------0---------|
|----3-------3---|------0-----3---|------3-----3---|----3-------3---|
|--2-----------2-|----2---------0-|----2-----------|--2-----------2-|
|0---------------|--0-------------|0---------------|0---------------|
|----------------|----------------|----------------|----------------|
|----------------|3---------------|----------------|----------------|
| | | | | | | | | | | | | | | | 
|------0---2-----|------2-------0-|----------------|----------------|

Telegram.
, . »

|----3-------3---|----3-------0---|------2---2-0-2-|3---2---0---2---| |--2-----------2-|--2-------0-----|----0-----2-0-2-|4---2---0---2---| |0---------------|0-------2-------|--2-------------|------------2---| |----------------|----------------|0---------------|--------------0-| |----------------|----------------|----------------|----------------| | | | | | | | | | | | | | | | | |------0---2-----|------2---------|----------------|----------------| |----3-------3---|----1---------1-|----0-------0-2-|--3-----3-2---0-| |--2-----------2-|--2---------2---|--0---------0-2-|--4-----4-2---0-| |0---------------|0---------------|------0---------|----------4---2-| |----------------|----------------|----------------|----------------| |----------------|----------------|3---------------|----------------| | | | | | | | | | | | | | | | | |------2---------|----------------|------0---2-----|0---------------| |----3-----3---3-|------2---------|----3-------3-0-|2---------------| |--2---------2---|----0-----0-----|--2-------------|0---------------| |0---------------|--2---------2---|0---------------|2---------------| |----------------|0---------------|----------------|0---------------| |----------------|----------------|----------------|----------------|








-
-
.