Mark Knopfler | An American Hero      Mark Knopfler  lyrics        
        
1-9 A B C D E F G H I J K L M N O P Q R S T U V W Y Z     

    



Mark Knopfler, An American Hero

: Mark Knopfler - (43),    (1 ),    (11),    (8)
: An American Hero
: 599
: Squire (nokeltaeh@yahoo.ie)




    
An American Hero
Mark Knopfler
TablEdited by Didier Buty
Tuning : C G D G B E    Time Signature: 4/4

 |   |   |   |    |   |   |   |    |   |   |   |    |   |   |   |    
|----------------|----------------|----------------|----------------|
|--------0---1---|----------0-0-1-|----------------|----1-3-3-5-5-8-|
|----2-----------|----------------|2---------------|----------------|
|----------------|----------------|----------------|----------------|
|----------------|----------------|----------------|----------------|
|----------------|----------------|----------------|----------------|

 |   |   |   |    |   |   |   |    |   |   |   |    |   |   |   |    
|----------------|----------------|--------0---1---|0---0-----------|
|----------8-8-5-|1---------------|----3-----------|--------3---1---|
|----------------|----------------|----------------|2---1---------2-|
|----------------|----------------|----------------|----------------|
|----------------|----------------|----------------|----------------|
|----------------|----------------|----------------|----------------|

 |   |   |   |    |   |   |   |    |   |   |   |    |   |   |   |    
|----------------|----------------|----------------|----------------|
|----------3-3---|0---------------|--------0---1---|----------0-0-1-|
|--------------2-|----------------|----2-----------|----------------|
|----------------|----------------|----------------|----------------|
|----------------|----------------|----------------|----------------|
|----------------|----------------|----------------|----------------|

 |   |   |   |    |   |   |   |    |   |   |   |    |   |   |   |    
|----------------|----------------|----------------|----------------|
|----------------|----1-3-3-5-5-8-|----------8-8-5-|1---------------|
|2---------------|----------------|----------------|----------------|
|----------------|----------------|----------------|----------------|
|----------------|----------------|----------------|----------------|
|----------------|----------------|----------------|----------------|

 |   |   |   |    |   |   |   |    |   |   |   |    |   |   |   |    
|--------0---1---|0---0-----------|----------------|----------------|
|----3-----------|--------3---1---|----------3-3---|0---------------|
|----------------|2---1---------2-|--------------2-|----------------|
|----------------|----------------|----------------|----------------|
|----------------|----------------|----------------|----------------|
|----------------|----------------|----------------|----------------|

 |   |   |   |    |   |   |   |    |   |   |   |    |   |   |   |    
|--8-------8-----|8-------8-------|--8-------8-----|----------------|
|--8-8-10--8-----|8---------------|--8-8-10--8-----|----------------|
|--------------9-|--7-9---7-------|----------------|----------------|
|----------------|----------------|----------------|----------------|
|----------------|----------------|----------------|----------------|
|----------------|----------------|----------------|----------------|

 |   |   |   |    |   |   |   |    |   |   |   |    |   |   |   |    
|----------8-----|8---------------|----------------|----------------|
|------10--8-----|8-------8-------|----------------|----------------|
|--------------9-|--7-9---7-------|--------5-------|----------------|
|----------------|------------10--|--------------7-|----------------|
|----------------|----------------|----------------|----------------|
|----------------|----------------|----------------|----------------|

 |   |   |   |    |   |   |   |    |   |   |   |    |   |   |   |    
|----------------|----------------|----------------|----------------|
|--------0---1---|----------0-0-1-|----------------|----1-3-3-5-5-8-|
|----2-----------|----------------|2---------------|----------------|
|----------------|----------------|----------------|----------------|
|----------------|----------------|----------------|----------------|
|----------------|----------------|----------------|----------------|

 |   |   |   |    |   |   |   |    |   |   |   |    |   |   |   |    
|----------------|----------------|--------0---1---|0---0-----------|
|----------8-8-5-|1---------------|----3-----------|--------3---1---|
|----------------|----------------|----------------|2---1---------2-|
|----------------|----------------|----------------|----------------|
|----------------|----------------|----------------|----------------|
|----------------|----------------|----------------|----------------|

 |   |   |   |    |   |   |   |    |   |   |   |    
|----------------|----------------|----------------|
|----------3-3---|0---------------|----------------|
|--------------2-|----------------|----------------|
|----------------|----------------|----------------|
|----------------|----------------|----------------|
|----------------|----------------|----------------|
    








-
-
.