Табулатура Mark Knopfler | Darling Pretty гитара табулатуры уроки тексты песен Mark Knopfler текст lyrics песня аккорды песни ноты нота электрогитара струна  
   А Б В Г Д Е Ж З И К Л М Н О П Р С Т У Ф Х Ч Ш Ы Э Ю Я       Разные песни
1-9 A B C D E F G H I J K L M N O P Q R S T U V W Y Z      Все исполнители

    



группа Mark Knopfler, Табулатура песни Darling Pretty

Группа: Mark Knopfler - другие аккорды (43),   об исполнителе (1 статей),   диски (11),   фотографии (8)
Табулатура песни: Darling Pretty
Просмотров: 774
Прислал: Squire (nokeltaeh@yahoo.ie)




    
Title : Darling Pretty (final solo)
Artist: Mark Knopfler 
Album : Golden Heart
Transcribed by: Fredrik Eriksson (fed-ex@swipnet.se) 
Here is the wonderful final solo of "Darling Pretty" by the master Mark Knopfler. (rockar fett)  
   [3:23]                                                             [3:33]
|---------------------------------------------------------------------------------------------|
|---------10-10~------10-12b14r12p10~--10--9-9--10p9------/9-10-9-------12b14-(14)-14r12------|
|---12b14----------11-------------------------------11----/9--9---9----9----------------------|
|---------------------------------------------------------------------------------------------|
|---------------------------------------------------------------------------------------------|
|---------------------------------------------------------------------------------------------|
                                             [3:38]
|---------------------------------------------------------------------------------------------|
|---10h12p10-10-----10h12--10h12p109h10p9~----------------------------------10-12b14r12p10---|
|---------------------------------------------9h11.-9h11b12r11p9~-------9h11------------------|
|--------------------------------------------------------------------11-----------------------|
|---------------------------------------------------------------------------------------------|
|---------------------------------------------------------------------------------------------|
                       [3:43]
|-----------------------------------------------------------------------------9-10-9----------|
|---12b14.-12--10-12----12b14r12-10-12p10~-----10h12-12b14.-12-10-12~---12b14--------12-10-10-|
|------------11-----------------------------11------------------------------------------------|
|---------------------------------------------------------------------------------------------|
|---------------------------------------------------------------------------------------------|
|---------------------------------------------------------------------------------------------|
                             [3:53]                                    [3.58]
|---------10-12p10-9----------9-12-9------------12-14----14b16r14-12~-------14-14-17p14--14---|
|------10------------12~-------------12-10~-----------15------------------14-----------14-----|
|---11------------------------------------------------------------------14--------------------|
|---------------------------------------------------------------------------------------------|
|---------------------------------------------------------------------------------------------|
|---------------------------------------------------------------------------------------------|

Продолжаем грести бабос на ботах в Telegram.
Только в этот раз есть вариант автоматизировать это дело, привлекая рефералов. Вы можете заработать если »

[4:02] |---------------------------------------------------------------------------------------------| |---17b19.-17~----14h15p14-15h17----------------14-14~-------15~-14----14~--------------------| |-------------------------------14--14h16-16b18--------16-14--------16------16-14-16----------| |---------------------------------------------------------------------------------------------| |---------------------------------------------------------------------------------------------| |---------------------------------------------------------------------------------------------| [4:13] |---------------------------------------------------------------------------------------------| |---------14-------------------15-17p15-14------------17.-17.-17--15p14h15--------15-14~------| |---16b18----16~--14h16p14--14-------------16~--------14.-14.-14---------------16-------------| |-------------------------16-----------------------14~----------------------------------------| |---------------------------------------------------------------------------------------------| |---------------------------------------------------------------------------------------------| [4:18] |--------------14-----------------------------------------------------------------------------| |----------------17b19~-19r17--14-17p14--14---------------------------------------------------| |--------16b18-------------------------16--16p14--14-16-14------------------------------------| |---14-14---------------------------------------16--------16~---------------------------------| |---------------------------------------------------------------------------------------------| |---------------------------------------------------------------------------------------------| That's all folks! Notation explained: / Slide up Slide down b Bend string r Release the bent string ~ Vibrato or/and sustain . Short note h Hammer on p Pull off








О сайтеАккордыХит-парадПоискУроки ФорумыИщу песню
ПрограммыСвежачок-сПодпискаСтатьи
Яндекс.Метрика