Табулатура Mark Knopfler | Cannibals гитара табулатуры уроки тексты песен Mark Knopfler текст lyrics песня аккорды песни ноты нота электрогитара струна  
   А Б В Г Д Е Ж З И К Л М Н О П Р С Т У Ф Х Ч Ш Ы Э Ю Я       Разные песни
1-9 A B C D E F G H I J K L M N O P Q R S T U V W Y Z      Все исполнители

    



группа Mark Knopfler, Табулатура песни Cannibals

Группа: Mark Knopfler - другие аккорды (43),   об исполнителе (1 статей),   диски (11),   фотографии (8)
Табулатура песни: Cannibals
Просмотров: 813
Прислал: Squire (nokeltaeh@yahoo.ie)




    

Intro and chorus (repeat this pattern as many times as needed):
=================
     EEE
          ^          ^             ^          ^            ^          ^             
E||------------------------|-----------------------|------------------------|
B||-------0----------0-----|-------0----------0----|-------0----------0-----|
G||-------1----------1-----|-------1----------1----|-------1----------1-----|
D||----------2----------2--|-----------------------|----------2----------2--|
A||-------------2----------|----------2----2-------|-------------2----------|
E||--0---------------------|--0--------------------|--0---------------------|
     A     EE
          ^          ^            ^          ^             ^          ^        
E||-----------------------|------------------------|-----------------------|
B||-------2----------2----|-------0----------0-----|-------0----------0----|
G||-------2----------2----|-------1----------1-----|-------1----------1----|
D||-----------------------|----------2----------2--|-----------------------|
A||--0-------0----0-------|-------------2----------|----------2----2-------|
E||-----------------------|--0---------------------|--0--------------------|
     cis        BE
          ^          ^             ^          ^                                
E||------------------------|-----------------------|
B||-------5----------4-----|-------0----------0----|
G||-------6----------4-----|-------1----------1----|
D||----------x----------4--|-----------------------|
A||--4----------2----------|----------2----2-------|
E||------------------------|--0--------------------|

Продолжаем грести бабос на ботах в Telegram.
Только в этот раз есть вариант автоматизировать это дело, привлекая рефералов. Вы можете заработать если »

Verse: ====== E ^ ^ ^ ^ ^^ E||----------------------|----------------------|----------------------| B||-------0---------0----|-------0---------0----|-------0---------0----| G||-------1---------1----|-------1---------1----|-------1---------1----| D||----------------------|----------------------|----------------------| A||------------2---------|------------2---------|------------2---------| E||--0-------------------|--0-------------------|--0-------------------| ^ ^ ^ ^ ^ ^ E||-----------------------|----------------------|----------------------| B||-------2----------2----|-------4---------4----|-------4---------4----| G||-------2----------2----|-------4---------4----|-------4---------4----| D||-----------------------|-------4---------4----|-------4---------4----| A||--0-------0----0-------|--2-------------------|--2-------------------| E||-----------------------|------------2---------|------------2---------| ^ ^ ^ ^ E||----------------------|-----------------------|| B||-------4---------4----|-------0----------0----|| G||-------4---------4----|-------1----------1----|| D||-------4---------4----|-----------------------|| A||--2-------------------|----------2----2-------|| E||------------2---------|--0--------------------||








О сайтеАккордыХит-парадПоискУроки ФорумыИщу песню
ПрограммыСвежачок-сПодпискаСтатьи
Яндекс.Метрика