Табулатура Mark Knopfler | Metroland Theme [instrumental] гитара табулатуры уроки тексты песен Mark Knopfler текст lyrics песня аккорды песни ноты нота электрогитара струна  
   А Б В Г Д Е Ж З И К Л М Н О П Р С Т У Ф Х Ч Ш Ы Э Ю Я       Разные песни
1-9 A B C D E F G H I J K L M N O P Q R S T U V W Y Z      Все исполнители

    



группа Mark Knopfler, Табулатура песни Metroland Theme [instrumental]

Группа: Mark Knopfler - другие аккорды (43),   об исполнителе (1 статей),   диски (11),   фотографии (8)
Табулатура песни: Metroland Theme [instrumental]
Просмотров: 957
Прислал: Squire (nokeltaeh@yahoo.ie)




    
                      Metroland (first solo)
----------------------------------------------------------------
----------------5h6-5---5---6-5-------5-------------------------
--4h5-7>9-7-5-7------7---------7-5h7-----5-4-------5-7>9-5-----
---------------------------------------------7--5-7-------------
----------------------------------------------------------------
----------------------------------------------------------------
--------------5-------------------------5-5---7-8-7-8---5-------
---8--3-5--8----6-----------5-------5h8-----8---------8---5-6--8
-7-----------------7--5--7----5--7------------------------------
----------------------------------------------------------------
----------------------------------------------------------------

Продолжаем грести бабос на ботах в Telegram.
Только в этот раз есть вариант автоматизировать это дело, привлекая рефералов. Вы можете заработать если »

---------------------------------------------------------------- ---------------------------------------------------------------- -6h5-----------5-------5-5--5--5-6-5---------------------------- -----7--7>9-----7--5-7----7----------7-5-7--7b--5--------------- ---------------------------------------------------------------- ---------------------------------------------------------------- ---------------------------------------------------------------- h=hammer on >=bend to certain noteb=bend to anything you can =) Richard








О сайтеАккордыХит-парадПоискУроки ФорумыИщу песню
ПрограммыСвежачок-сПодпискаСтатьи
Яндекс.Метрика