Табулатура Mark Knopfler | Irish Boy гитара табулатуры уроки тексты песен Mark Knopfler текст lyrics песня аккорды песни ноты нота электрогитара струна  
   А Б В Г Д Е Ж З И К Л М Н О П Р С Т У Ф Х Ч Ш Ы Э Ю Я       Разные песни
1-9 A B C D E F G H I J K L M N O P Q R S T U V W Y Z      Все исполнители

    



группа Mark Knopfler, Табулатура песни Irish Boy

Группа: Mark Knopfler - другие аккорды (43),   об исполнителе (1 статей),   диски (11),   фотографии (8)
Табулатура песни: Irish Boy
Просмотров: 594
Прислал: Squire (nokeltaeh@yahoo.ie)




    
IRISH BOY
00:05              x3                       00:40
--|-----------------|-------------------------|---7----7----7-10--------------7
--|-----------------|-------------------------|-----10---10-----------------8--
--|---7-------------|--------7----------------|-7----------------9-9-7-9--9----
--|-9---10-9-10-9-7-|----7-9---10-9-10-9-7--9-|--------------------------------
--|-----------------|-10----------------------|--------------------------------
--|-----------------|-------------------------|--------------------------------
        00:51                                       01:04
----------|---7----7----7-10---------------7----------|---------7--------7-----
8-10-8-10-|-----10---10------------------8---8-10-8-8-|-------8---8-10-8-------
----------|-7----------------9-9--7-9--9--------------|-7-9-9--------------7-9-
----------|-------------------------------------------|------------------------
----------|-------------------------------------------|------------------------
----------|-------------------------------------------|------------------------
             01:15                                   01:29
----7----------|---------7--------7---------7----------|-7----7----7-10--------
--8---8-10-8-8-|-------8---8-10-8---------8---8-10-8-8-|---10---10-------------
9--------------|-7-9-9--------------7-9-9--------------|----------------9-9-7-9
---------------|---------------------------------------|-----------------------
---------------|---------------------------------------|-----------------------
---------------|---------------------------------------|-----------------------

Продолжаем грести бабос на ботах в Telegram.
Только в этот раз есть вариант автоматизировать это дело, привлекая рефералов. Вы можете заработать если »

01:41 01:54 ----7-----------|---7----7----7-10--------------7----------|---------7--------7 --8---8-10-8-10-|-----10---10-----------------8---8-10-8-8-|-------8---8-10-8-- 9---------------|-7----------------9-9-7-9--9--------------|-7-9-9------------- ----------------|------------------------------------------|------------------- ----------------|------------------------------------------|------------------- ----------------|------------------------------------------|------------------- 02:05 02:17 --------7------|---------7--------7----------7----------|--7----7----7-10------ ------8---8-10-|-------8---8-10-8----------8---8-10-8-8-|----10---10----------- 7-9-9----------|-7-9-9---------------7-9-9--------------|-7---------------9-9-- ---------------|----------------------------------------|---------------------- ---------------|----------------------------------------|---------------------- ---------------|----------------------------------------|---------------------- ---------7--------------------------------------------------------------------- -------8---8-10-8-10----------------------------------------------------------- 7-9--9------------------------------------------------------------------------- ------------------------------------------------------------------------------- ------------------------------------------------------------------------------- -------------------------------------------------------------------------------








О сайтеАккордыХит-парадПоискУроки ФорумыИщу песню
ПрограммыСвежачок-сПодпискаСтатьи
Яндекс.Метрика