Табулатура Mark Knopfler | Wild Theme гитара табулатуры уроки тексты песен Mark Knopfler текст lyrics песня аккорды песни ноты нота электрогитара струна  
   А Б В Г Д Е Ж З И К Л М Н О П Р С Т У Ф Х Ч Ш Ы Э Ю Я       Разные песни
1-9 A B C D E F G H I J K L M N O P Q R S T U V W Y Z      Все исполнители

    



группа Mark Knopfler, Табулатура песни Wild Theme

Группа: Mark Knopfler - другие аккорды (43),   об исполнителе (1 статей),   диски (11),   фотографии (8)
Табулатура песни: Wild Theme
Просмотров: 855
Прислал: Squire (nokeltaeh@yahoo.ie)




    
WILD THEME
            00:05           00:11               00:17                  00:24
--------------|-----5-7-5-----|-------------------|----------------------|-----
---5-5--5-8-8-|-5-8-------8-5-|-5---5-8-------5---|-------5--------------|-----
--------------|---------------|---7-----7-7-5---7-|---5-7---5-4----------|-4-5-
-5------------|---------------|-------------------|-5-----------7--7>5>7-|-----
--------------|---------------|-------------------|----------------------|-----
--------------|---------------|-------------------|----------------------|-----
          00:28                     00:35       00:41                     00:48
------------|-----------8-7-5-7>5-----|---5-5-5---|-------------------------|--
---5-5--5-8-|-------5-8-----------8>5-|-5-------8-|-------5---------5-------|--
-7----------|---5-7-------------------|-----------|---5-7---5-----5---7-5-5-|--
------------|-5-----------------------|-----------|-5---------5-7-----------|--
------------|-------------------------|-----------|-------------------------|--
------------|-------------------------|-----------|-------------------------|--
                            00:54                      01:00              01:02
---------8-10-8-7-----5-------|--------------------------|------------------|--
-----5-8----------8-5---8>6>8-|-6-5-6--8-6-5---------5---|------------5-8-5-|--
-5-7--------------------------|--------------5-----5---7-|-5-7-5--5-7-------|--
------------------------------|----------------5-7-------|------------------|--
------------------------------|--------------------------|------------------|--
------------------------------|--------------------------|------------------|--
            01:05                  01:14                             01:22
--------------|----------------------|---------------------------------|-------
-8-8-6--5-6-8-|---5-6--8-6-8---------|---5-5--5--8-8-...-5-8-8-6-----5-|-------
--------------|-7--------------------|---------------------------5-7---|-5-4---
--------------|--------------5-7-5-5-|-5-------------------------------|-----7-
--------------|----------------------|---------------------------------|-------
--------------|----------------------|---------------------------------|-------
   01:25             01:30               01:36
-----|-----------------|-------------------|------------------------12-10-8-7-5
-----|-----7-----5-----|---6-5-...-5-6-----|-5-6----------5-8-8-...------------
-4-5-|-5-7---5-7---7-7-|---------------5---|-----7-5-7-5-----------------------
-----|-----------------|-7---------------7-|-----------------------------------
-----|-----------------|-------------------|-----------------------------------
-----|-----------------|-------------------|-----------------------------------
                   01:54                          02:02
---5---------5---5---|------------------------------|---------8--8-7--5--------
-8---8-...-5---5---8-|---8--6-5-6-5-------6-5-------|-----5-8------------8--6--
---------------------|-7------------7-5-------7-5-5-|-5-7----------------------
---------------------|------------------7-----------|--------------------------
---------------------|------------------------------|--------------------------
---------------------|------------------------------|--------------------------
          02:12                                                02:27
-----5----7-|-8-7--5-8-7-7--5-7-5---5---10-12-10-8--------5------|-------------
--8---------|---------------------8---8-------------8-5-8----8-8-|-5---5-------
--------9---|----------------------------------------------------|---7----5-7--
------------|----------------------------------------------------|-------------
------------|----------------------------------------------------|-------------
------------|----------------------------------------------------|-------------
          02:33   02:36              02:42
------------|-------|------------------|--------------5------------------------
-5-6--5-6-8-|-----5-|---------5----5---|-------5--6-8----8-6--5-6-8--5--8------
------------|-5-7---|---4-5-7----7---7-|-4-5-7----------------------------5-7--
------------|-------|-7----------------|---------------------------------------
------------|-------|------------------|---------------------------------------
------------|-------|------------------|---------------------------------------
                  03:00                                     03:13
-----8-7-5--5-7-----|-----------------------------------------|----------------
-5-8------------8-5-|---5-8------5--------6-5---------5-------|-------5--------
--------------------|-7-----7--5---5-7--------5-----5---7-5-5-|---5-7---5------
--------------------|-------------------5-------5-7-----------|-5---------5-7--
--------------------|-----------------------------------------|----------------
--------------------|-----------------------------------------|----------------
          03:35
------------|
---5--------|
-5---7--5-5-|
------------|
------------|
------------|
WILD THEME (live version - from "On The Night")
00:18                      00:27                      00:34
-----------------------------|--------5-----5-4---4-5---|-----4-5-----4-5--7-5-
---7-----7-5---5-7-7-----5-7-|-10--8------7-------------|---7-------7----------
---7---7---------------7-----|----------6-------6-----6-|-6-------6------------

Продолжаем грести бабос на ботах в Telegram.
Только в этот раз есть вариант автоматизировать это дело, привлекая рефералов. Вы можете заработать если »

-7---7-------7-------7-------|--------------------------|---------------------- -----------------------------|--------------------------|---------------------- -----------------------------|--------------------------|---------------------- 00:42 00:45 00:52 00:55 -4-2-|-------------|----------------------------|-------------------|---------- -----|-8---7---8---|-----7-8-----7-8---10-8-7-5-|-7-----7-------7-7-|-----7-7-- -----|---7---7-----|---9-------9----------------|-----7---9---9-----|---7-7---9 -----|-----------9-|-9-------9------------------|---7-------7-------|-7-------- -----|-------------|----------------------------|-------------------|---------- -----|-------------|----------------------------|-------------------|---------- 01:03 01:09 ---------------|-----------------------|--------------------------------------- -7-8--10-8-7-5-|-8-7-8-----8-7-----7---|-----7-7-----7-7-------7---7-8--10-8-7- ---------------|---------9---7---7---9-|---9-------7---7-----7---9------------- ---------------|-------9-----7-7-------|-7-------7---------7------------------- ---------------|-----------------------|--------------------------------------- ---------------|-----------------------|--------------------------------------- 01:20 01:27 01:32 01:37 ---|--------------------------------|---------|---------------------|---------- -5-|--------------------------------|---------|---------------------|---7-7-7-- ---|-7---6---7-7----7-7----7-6--7-7-|-7-6-7---|-----6-7-6--6-7-6--4-|---7------ ---|---9---9------9------9----------|-------9-|---9-----------------|-7-------- ---|---------------------9----------|---------|-9-------------------|---------- ---|--------------------------------|---------|---------------------|---------- 01:41 01:47 01:52 01:58 ------|------7--7-9-7------|---------------------|----------------------|------ 10-10-|-7-10----------10-7-|-7---7--7-7-------10-|-------7--------------|------ ------|--------------------|---9--------9-7-9----|---7-9---7------------|-6-7-9 ------|--------------------|---------------------|-7---------7-9--9-7-9-|------ ------|--------------------|---------------------|----------------------|------ ------|--------------------|---------------------|----------------------|------ 02:02 02:09 02:14 ------------|------------10-9-7--7-9-7------|----------------|----------------- 7-7-7-10-10-|-------7-10---------------10-7-|---7-10-7-------|------7---------7 ------------|---7-9-------------------------|-9--------9-7-9-|--7-9---7-----7-- ------------|-7-----------------------------|----------------|-7--------7-9---- ------------|-------------------------------|----------------|----------------- ------------|-------------------------------|----------------|----------------- 02:20 02:30 ------|----------10--10-9----------7--------7-------------------------------| ------|-----7-10-----------10-7-10----10-8----10--8-7-8--10-7-8---------7---| 9-7-7-|-7-9-----------------------------------------------------7-----7---9-| ------|-----------------------------------------------------------7-9-------| ------|---------------------------------------------------------------------| ------|---------------------------------------------------------------------| 02:43 14-12-10-9--7-----------------------------------|--------------------7-7-9-7--- -------------10-8-7-10--8-7-8-10-8-7------------|---7-----7-10--7-10---------10 -------------------------------------7----------|---7---7---------------------- ---------------------------------------7-9--7-7-|-7---7------------------------ ------------------------------------------------|------------------------------ ------------------------------------------------|------------------------------ 02:53 03:00 03:05 ---|-----------------------------|----------------|--------------------------14 -7-|-------7-7------7------8-8---|---8-7--7-8-----|-7-8-----------7----7-10---- ---|---7-9------9-7---9--9-----9-|-9----------7---|-----9-7-9-7-9----9--------- ---|-7---------------------------|--------------9-|---------------------------- ---|-----------------------------|----------------|---------------------------- ---|-----------------------------|----------------|---------------------------- 03:21 03:31 12-10-9-7----7-----7-7-7--------------|-------------------------|-------------- ----------10---10--------10-10----7-- |-------7---------7-------|-------7------ --------------------------------7---9-|---7-9---7-----7---9-7-7-|---7-9----7-6- --------------------------------------|-7---------7-9-----------|-7------------ --------------------------------------|-------------------------|-------------- --------------------------------------|-------------------------|-------------- 03:48 ----------------------------5-| -----7----10--------------7---| ---7---9-----7----------7-----| 9------------7--------7-------| --------------------9---------| -----------------10-----------|








О сайтеАккордыХит-парадПоискУроки ФорумыИщу песню
ПрограммыСвежачок-сПодпискаСтатьи
Яндекс.Метрика