Табулатура Mark Knopfler | Nobody`s Got The Gun гитара табулатуры уроки тексты песен Mark Knopfler текст lyrics песня аккорды песни ноты нота электрогитара струна  
   А Б В Г Д Е Ж З И К Л М Н О П Р С Т У Ф Х Ч Ш Ы Э Ю Я       Разные песни
1-9 A B C D E F G H I J K L M N O P Q R S T U V W Y Z      Все исполнители

    



группа Mark Knopfler, Табулатура песни Nobody`s Got The Gun

Группа: Mark Knopfler - другие аккорды (43),   об исполнителе (1 статей),   диски (11),   фотографии (8)
Табулатура песни: Nobody`s Got The Gun
Просмотров: 1663
Прислал: Squire (nokeltaeh@yahoo.ie)




    
NOBODY'S GOT THE GUN
Mark Knopfler 1996
Final Solo : 3.28 --- 5:16
3:28                                                     3:39
|---------------------------------------------------------|--------------------
|-------------------------------------10r-----------------|--------------------
|-------9---10-9--------------9-12-12-12r-9-----(7r)------|-------------10-10--
|--10-12--------12-10-12-10------------------12-10r-12-10-|---(12)b14b14-14----
|10-------------------------------------------------------|-10-----------------
|---------------------------------------------------------|--------------------
                               3:48
--------------------------------|----------------------------------------------
--------------------------------|----------------------------------10----------
----------10-10-12-12------10---|--------9-9-10-10-9--------9-12-12---9--------
-14b12-10-12-12-14-14-12b14--12-|-10-12b14----------12-10------------12-12-10--
--------------------------------|----------------------------------------------
--------------------------------|----------------------------------------------
                                                                     4:07
----------------------------------------------------------------------|--------
----------------------------------------------------------------------|--------
-----------9-10-10-9-------------9-----------9-10-10--9-10-9----------|-9-12-12
12-10--12b14---------12-10-12-12---12-12--12---12-12---------12-10-12-|--------
----------------------------------------------------------------------|--------
----------------------------------------------------------------------|--------
                                    4:16
-------------------------------------|-----------------------------------------
-------------------------------12-10-|-----------13----13-12-10-------10-12-13-
-12-9--------------9-12-9-12-9-------|-12-10-12-----12----------12-12-10-------
------12-10-9-10--10-----------------|-----------------------------------------
-------------------------------------|-----------------------------------------
-------------------------------------|-----------------------------------------
            4:25

Продолжаем грести бабос на ботах в Telegram.
Только в этот раз есть вариант автоматизировать это дело, привлекая рефералов. Вы можете заработать если »

-------10----|-------15-12-----------------------------13-12------------------- -12-13----13-|----15-------13----------15-13-12-----15-------15-13-15-13-12---- -------------|-12-------------12----12----------14--------------------------14- -------------|-------------------14-------------------------------------------- -------------|----------------------------------------------------------------- -------------|----------------------------------------------------------------- 4:44 ----------------------------------------12----------|-------15-12-------------- -----------12------------12-13-12-13-15-15-15-13-15-|----15-------13--13-15-13- ----12--14-----14-12--14----------------------------|-12----------------------- -14-------------------------------------------------|-------------------------- ----------------------------------------------------|-------------------------- ----------------------------------------------------|-------------------------- -----12-13-12----------------------|--------------------------------------12--- -12----------15-13-15-13-12--12-13-|-13-------12-----------12-13-15-13-15----15 ---14----------------------14------|----12-14----14-12--14--------------------- -----------------------------------|------------------------------------------- -----------------------------------|------------------------------------------- -----------------------------------|------------------------------------------- 5:04 5:13 5:16 -------|---------------------------------------------------|------------------| -13-15-|-15b17--15-13-15-15-13-1513---13-12-------------12-|------------------| -------|-----------------------------------14-12---12-14---|15-14-12--12-14-12| -------|----------------------------------------14---------|--------15--------| -------|---------------------------------------------------|------------------| -------|---------------------------------------------------|------------------| 10r : let the chord ring s : string sliding b : string bending








О сайтеАккордыХит-парадПоискУроки ФорумыИщу песню
ПрограммыСвежачок-сПодпискаСтатьи
Яндекс.Метрика