Табулатура Mark Knopfler | Rudiger гитара табулатуры уроки тексты песен Mark Knopfler текст lyrics песня аккорды песни ноты нота электрогитара струна  
   А Б В Г Д Е Ж З И К Л М Н О П Р С Т У Ф Х Ч Ш Ы Э Ю Я       Разные песни
1-9 A B C D E F G H I J K L M N O P Q R S T U V W Y Z      Все исполнители

    



группа Mark Knopfler, Табулатура песни Rudiger

Группа: Mark Knopfler - другие аккорды (43),   об исполнителе (1 статей),   диски (11),   фотографии (8)
Табулатура песни: Rudiger
Просмотров: 1764
Прислал: Squire (nokeltaeh@yahoo.ie)




    
RUDIGER
Mark Knopfler 1996
Solo at 2:25 -- 2:54
2:26                   2:30
|---------------------|--------------------------------------------------------
|----12-13-9-12-10--9-|---8-(8)b10-7-------------------------------------------
|9-11-------------9-9-|-9--------------10-----9-10-9---9-----------------------
|---------------------|---------------------12----------12p10h12---10h12p10----
|---------------------|--------------------------------------------------------
|---------------------|--------------------------------------------------------
      2:41
-------|-----------------------------------------------------------------------
-------|----12s13-9-12-10------------------------------------------------------
-------|---9-------------9-(11)b13---9-12b14-11---10---------------------------
-12b14-|-12---------------------------------------12-10h12s14s12p10h12s14-14p13
-------|-----------------------------------------------------------------------
-------|-----------------------------------------------------------------------
         2:54
----------|
----------|
----------|
-12p10-12-|
----------|

Продолжаем грести бабос на ботах в Telegram.
Только в этот раз есть вариант автоматизировать это дело, привлекая рефералов. Вы можете заработать если »

----------| Final Solo at 5:05 -- End 5:05 5:13 |----------------------10------------------------------------|----------------- |---------10---10-12-13--13-12-10--12--10--------------------|----------------- |-12b14b14-----------------------12--12-----12---9h12p9------|-12b14-14b12----- |------------------------------------------------------12p10-|----------------- |------------------------------------------------------------|----------------- |------------------------------------------------------------|----------------- 5:17 -----------------------------------------| -----------------------------------------| -----------------------------------------| -14p12h14-14-13-12---10--12--10s12b14b12-| -----------------------12--12------------| -----------------------------------------| s : string sliding b : string bending h : hammering p : pull off








О сайтеАккордыХит-парадПоискУроки ФорумыИщу песню
ПрограммыСвежачок-сПодпискаСтатьи
Яндекс.Метрика