Табулатура Mark Knopfler | Don`t You Get It гитара табулатуры уроки тексты песен Mark Knopfler текст lyrics песня аккорды песни ноты нота электрогитара струна  
   А Б В Г Д Е Ж З И К Л М Н О П Р С Т У Ф Х Ч Ш Ы Э Ю Я       Разные песни
1-9 A B C D E F G H I J K L M N O P Q R S T U V W Y Z      Все исполнители

    



группа Mark Knopfler, Табулатура песни Don`t You Get It

Группа: Mark Knopfler - другие аккорды (43),   об исполнителе (1 статей),   диски (11),   фотографии (8)
Табулатура песни: Don`t You Get It
Просмотров: 917
Прислал: Squire (nokeltaeh@yahoo.ie)




    
DON'T YOU GET IT
Mark Knopfler 1996
Solo : 2:06 --- 2:56
2:06                              2:12
|----------------------------------|-------------------------------------------
|----------------------------------|-----/---------/-------------------------
|-7--9-7---------------7-----------|----|---------||------------|--------------
|--------10-----7-10-7---10-7----7-|-10-|7----7-10||7----7-10-10|-10-7---------
|------------10---------------10---|----|--10-----||--10--------|------10-7----
|----------------------------------|------------/------------/------------10-
    2:16
-----|-------------------------------------------------------------------------
-----|-----10---10---(8)b10-8b10--10-12-10---10--------------------------------
-----|-9-9----9----9-----------------------9----12-11-9-------9----------------
-----|--------------------------------------------------12-13---13-12-10----12-
-----|-------------------------------------------------------------------12----
-8s5-|-------------------------------------------------------------------------
        2:22                                                   2:26
---------|------------------------------------------------------|--------------
---------|------------------------------------------------------|--------------
---------|------------------------------------------------------|-9-9-10-9----9
------10-|----------10-10----------9-10-12-10-9-----------10----|----------12--
-(12)----|-12-10-12-------12-10-12--------------12-10-12-----12-|--------------
---------|------------------------------------------------------|--------------
                                2:30
---------------------------------|---------------------------------------------
---------------------------------|---------------------------------------------
--------9------------------------|12s9--9--------------------9-10--9s10s9s7----
-12-12----10-9--------------10-12|--------12-10-12--12-10-12-------------------

Продолжаем грести бабос на ботах в Telegram.
Только в этот раз есть вариант автоматизировать это дело, привлекая рефералов. Вы можете заработать если »

---------------12--12-10-12------|--------------------------------------------- ---------------------------------|--------------------------------------------- 2:40 ----------------------------------|---------10--------------------------------- ----------------------------10----|-13-13---------10----(10)s12--12-10----10-10 -12-[x 13]-(12)b14b14-12-10----12-|------------12----12----------------12------ ----------------------------------|-------------------------------------------- ----------------------------------|-------------------------------------------- ----------------------------------|-------------------------------------------- 2:45 ---------------|--------------------------------------------------------------- -13-10---------|--------------------------------------------------------------- -------12-10-12|------12----(12-12)----------------12-------12-14-12-14-12-14-- ---------------|----12----15---------15-12-------12----15-12------------------- ---------------|--14---------------------------14------------------------------ ---------------|15--------------------------15--------------------------------- 2:50 2:56 ---------|--------------------------------------------------------------------| ---------|-------------------------------------------------------15b17-15-----| -12------|12-12-12--------12s13-15-13-------14--17-14----13-16-13--------17-14| ----15-12|---------15-12---------------12s16--16-----16-----------------------| ---------|--------------------------------------------------------------------| ---------|--------------------------------------------------------------------| (n) : fast played note b : string bending s : string sliding [x n] : last note repeated








О сайтеАккордыХит-парадПоискУроки ФорумыИщу песню
ПрограммыСвежачок-сПодпискаСтатьи
Яндекс.Метрика