Табулатура Наутилус Помпилиус | Утро Полины гитара табулатуры уроки тексты песен Наутилус Помпилиус текст lyrics песня аккорды песни ноты нота электрогитара струна  
   А Б В Г Д Е Ж З И К Л М Н О П Р С Т У Ф Х Ч Ш Ы Э Ю Я       Разные песни
1-9 A B C D E F G H I J K L M N O P Q R S T U V W Y Z      Все исполнители

    



группа Наутилус Помпилиус, Табулатура песни Утро Полины

Группа: Наутилус Помпилиус - другие аккорды (113),   диски (9)
Табулатура песни: Утро Полины
Просмотров: 4188
Подобрал: Bomzzara (cure@one.lv)




    
Утро Полины
Gmaj7:    320002
Em:         022000
Cmaj7:    x32000 (in intro: 875557)
Am:       x02210 (in intro: 577555)
Intro: 
E--------------2------------0-----------2-------------0------------7-------------5--------------7----------------5--------
H-----------0------------------------0--------------------------5-----------------------------5----------------------------
G--------0-------------0---------0---------------0----------5---------------5------------5-----------------5-------------
D-------------------2-------------------------2---------------------------7-------------------------------7----------------
A----------------------------------------------------------------------------------------------------------------------------
E----------------------------------------------------------------------------------------------------------------------------
[Gmaj7]Руки Полины, как забытая песня под у[Em]порной иглой.
[Gmaj7]Звуки ленивы и кружат, как пылинки над [Em]ее головой.
[Cmaj7]Сонные глаза ждут того, кто войдет и заж[Am]гет в них свет.
[Gmaj7]Утро Полины продолжается сто милли[Em]ардов лет.
И в[C]се эти годы я слышу, как колышется [Hm]грудь
И от [C]eе дыхания в окнах запотело стек[Hm]ло.
И мне не [D]жалко того, что так бесконечен мой [Em]путь:
В ее хрус[C]тальной спальне постоянно, постоянно свет[D]ло.
e-----7h10p7----7/5/3-------7/10/(7)----7--/17-15-------19----15--12--15/17----15/17--19---19-15/12--15/17----
H---------------------------------------------------------------------------------------------------------------------------------
G---------------------------------------------------------------------------------------------------------------------------------
D---------------------------------------------------------------------------------------------------------------------------------
A---------------------------------------------------------------------------------------------------------------------------------
E---------------------------------------------------------------------------------------------------------------------------------
Я знаю [Gmaj7]тех, кто дождется и тех, кто, не дождавшись, ум[Em]рет,
Но и с [Gmaj7]теми и с другими одинаково скучно ид[Em]ти.
Я лю[Cmaj7]блю тебя за то, что твое ожидание [Am]ждет
То[Cmaj7]го, что никогда не сможет произой[Am]ти.
[Gmaj7]Пальцы Полины словно свечи в канделябрах но[Em]чей.
[Gmaj7]Слезы Полины превратились в бесконечный ру[Em]чей.
В [Cmaj7]комнате Полины на пороге нерешительно [Am]мнется рассвет.
[Gmaj7]Утро Полины продолжается сто милли[Em]ардов лет.
И в[C]се эти годы я слышу, как колышется [Hm]грудь
И от [C]ее дыхания в окнах запотело стек[Hm]ло.

Продолжаем грести бабос на ботах в Telegram.
Только в этот раз есть вариант автоматизировать это дело, привлекая рефералов. Вы можете заработать если »

И мне не [D]жалко того, что так бесконечен мой [Em]путь: В ее хрус[C]тальной спальне постоянно, постоянно свет[D]ло. e------14h15---15--17--19--14----14--15--17--12--------15---15--17--19--14----14--15--17--12--------- H---------------------------------------------------------------------------------------------------------------------- G---------------------------------------------------------------------------------------------------------------------- D---------------------------------------------------------------------------------------------------------------------- A---------------------------------------------------------------------------------------------------------------------- E---------------------------------------------------------------------------------------------------------------------- e---------------------10--12------------------10----------------------------10--12-------------------------------- H------12h13---13-----------12----12--13------10---------12h13---13-----------12----12--13--10----------- G---------------------------------------------------------------------------------------------------------------------- D---------------------------------------------------------------------------------------------------------------------- A---------------------------------------------------------------------------------------------------------------------- E---------------------------------------------------------------------------------------------------------------------- e------/12-12-12---10-10-----------------------------------------/12-12-12---10-10-----------------------12/14-------------- H-----------------------------13-13-13-12------------------------------------------------13-13-13-12-10----------------------- G----------------------------------------------11---9-11----------------------------------------------------------------------------- D-----------------------------------------------------------9-------------------------------------------------------------------------- A--------------------------------------------------------------------------------------------------------------------------------------- E--------------------------------------------------------------------------------------------------------------------------------------- e----15/17--15--------------------------10-------------------------------10----------12---------------14------/15--14--12------ H----------------12------------------------------------------------------------------------------11--12-------12-------------------- G------------------------11-11-11-12-------11--12----11-11-11-12-------11-12------------------------------------------------ D--------------------------------------------------------------------------------------------------------------------------------------- A--------------------------------------------------------------------------------------------------------------------------------------- E--------------------------------------------------------------------------------------------------------------------------------------- e---------------------------------------------------10--------------------------------------------------------------------------------- H-------------13--------------------13-----------------10---8---7----7h8p7-------------------------------------------------------- G-----11-12------11-12---11-12-------11-12----------------------------------6/7----------------------------------------------- D----------------------------------------------------------------------------------------9-9/(5)-------------------------------------- A-------------------------------------------------------------------------------------------------------------------------------------- E-------------------------------------------------------------------------------------------------------------------------------------- THE END








О сайтеАккордыХит-парадПоискУроки ФорумыИщу песню
ПрограммыСвежачок-сПодпискаСтатьи
Яндекс.Метрика