Табулатура Foreigner | Double Vision гитара табулатуры уроки тексты песен Foreigner текст lyrics песня аккорды песни ноты нота электрогитара струна  
   А Б В Г Д Е Ж З И К Л М Н О П Р С Т У Ф Х Ч Ш Ы Э Ю Я       Разные песни
1-9 A B C D E F G H I J K L M N O P Q R S T U V W Y Z      Все исполнители

    



группа Foreigner, Табулатура песни Double Vision

Группа: Foreigner - другие аккорды (21),   о группе (4 статей),   диски (11),   фотографии (15)
Табулатура песни: Double Vision
Просмотров: 1262
Прислал: Neo (neo-vzlom@mail.ru)




    
"Double Vision"
(L.Gramm/M.Jones)
From the album "Records"
==========================================================
Tabbed by Tab-Man 
4eigner.net The Foreigner Website 
==========================================================
Tuning..... Standard  E B G D A E
NOTES: This is NOT a complete tab but any means. I don't have the rhythm
guitar for the chorus, nor do I have some other parts. Sorry about the
incompleteness of this tab.
Intro
E-------------------------|------------------------|
B-------------------------|-----------------------*|
G-------------------------|------------------------|
D-12\--5----5-5-5-7-5---|-12\--5----5-5-5-7----|
A-12\--3----0-3-0-5-3---|-12\--3----0-3-0-5---*|
E-------------------------|------------------------|
Verse
  P.M............   P.M............
E-----------------|-----------------|----------------------|
B-----------------|-----------------|----------------------|
G-----------------|-----------------|----------------------|
D-2-2-2-0-2-2-2-0-|-2-2-2-0-2-2-2-0-|--2----7----5---------|
A-0-0-0-0-0-0-0-0-|-0-0-0-0-0-0-0-0-|--0----5----3----5----|
E-----------------|-----------------|-----------------3----|
[The next line is the same except it's different, I didn't
bother figuring it out. I guess I'm lazy.]
Feeling down and dirty, feeling kinda mean
I've been to one to another, extreme

Продолжаем грести бабос на ботах в Telegram.
Только в этот раз есть вариант автоматизировать это дело, привлекая рефералов. Вы можете заработать если »

It's time I had a good time, ain't got time to wait I wanna stick around till I can't see straight Chorus [lead only] Dm E-13----------13----------|-13----------13----------| B----15----15----15----15-|----15----15----15----15-| G-------14----------14----|-------14----------14----| D-------------------------|-------------------------| A-------------------------|-------------------------| E-------------------------|-------------------------| Am E-12----------12----------|-12----------12-----------| B----13----13----13----13-|----13----13----13----13-*| G-------14----------14----|-------14----------14-----| D-------------------------|--------------------------| A-------------------------|-------------------------*| E-------------------------|--------------------------| Fill my eyes, you got double vision No disguise, for that double vision Ohh, when it gets through to me, it's always new to me My double vision gets the best of me That's all I guess. Whoop de doo. ========================================================== Tabbed by Tab-Man 4eigner.net The Foreigner Website ==========================================================

www.4eigner.net







О сайтеАккордыХит-парадПоискУроки ФорумыИщу песню
ПрограммыСвежачок-сПодпискаСтатьи
Яндекс.Метрика