Табулатура Ария | Ангельская пыль Вступление (3) гитара табулатуры уроки тексты песен Ария текст lyrics песня аккорды песни ноты нота электрогитара струна  
   А Б В Г Д Е Ж З И К Л М Н О П Р С Т У Ф Х Ч Ш Ы Э Ю Я       Разные песни
1-9 A B C D E F G H I J K L M N O P Q R S T U V W Y Z      Все исполнители in english

    



группа Ария, Табулатура песни Ангельская пыль Вступление (3)

Продолжаем грести бабос на ботах в Telegram.
Только в этот раз есть вариант автоматизировать это дело, привлекая рефералов. Вы можете заработать если »

Группа: Ария - другие аккорды (629),   о группе (7 статей),   диски (18),   фотографии (92)
Табулатура песни: Ангельская пыль Вступление (3)
Просмотров: 4095
Подобрал: Max (max_ney@mtv.ru)




    
Вступление:
1||------------------------------------------------------------|
2||------------------------------------------------------------|
3||------------------------------------------------------------|
4||---4--2----------------------------2---4---2----------------|
5||-2------5-4---5---4--2---2---4--5-----------5--4--5--4--2---|
6||----------------------------------------------------------5-|
перебор: 
       Em
1||---0------0------0--------|
2||-----0------0------0------|
3||-------0------0-----------|
4||--------------------------|
5||--------------------------|
6||---0----------------------|
Em, C, Em, C, Em, C, Em, C.
КУПЛЕТ 
Em                                 C
На краю обрыва, за которым вечность
Em                                         C
Ты стоишь один во власти странных грез
Em                                                    C
И, простившись с миром, хочешь стать беспечным
G                                               D
Поиграть с огнем нездешних грез
Наконец ты счастлив как никто на свете
Ангельская пыль тебя уносит вверх

Продолжаем грести бабос на ботах в Telegram.
Только в этот раз есть вариант автоматизировать это дело, привлекая рефералов. Вы можете заработать если »

Только ей подвластны и восторг, и ветер В \"жидких небесах\" звучит твой смех ПРИПЕВ: C D Em Em Ангельская пыль C D H7 H7 Это сон и быль! Em C G D Безумец, беглец дороги нет Em C D D Ты видишь неверный свет Am F C G Твой ангел зажег мираж огня Am F G G Он хочет убить тебя... -Проигрыш- (Em, C, Em, C, Em, C, Em, C.) КУПЛЕТ На краю обрыва песня неземная Музыка богов и голоса богинь Ты паришь над миром, но торговец раем Вынет душу из тебя за героин КУПЛЕТ Ты устал быть птицей и сорвался камнем Рухнул с высоты, спасаясь от судьбы На краю обрыва вновь летят на пламя Сотни мотыльков-самоубийц

искать в аптеке
список лекарств






О сайтеАккордыХит-парадПоискУроки ФорумыИщу песню
ПрограммыСвежачок-сПодпискаСтатьи
Яндекс.Метрика