Табулатура Mike Oldfield | Moonwatch гитара табулатуры уроки тексты песен Mike Oldfield текст lyrics песня аккорды песни ноты нота электрогитара струна  
   А Б В Г Д Е Ж З И К Л М Н О П Р С Т У Ф Х Ч Ш Ы Э Ю Я       Разные песни
1-9 A B C D E F G H I J K L M N O P Q R S T U V W Y Z      Все исполнители

    



группа Mike Oldfield, Табулатура песни Moonwatch

Группа: Mike Oldfield - другие аккорды (207),   об исполнителе (3 статей),   диски (26),   фотографии (18)
Табулатура песни: Moonwatch
Просмотров: 1183
Прислал: squire (cailinsquires@yahoo.ie)




    
Moonwatch from Tubular Bells III
written by Mike Oldfield
tabbed by Pedro Couto e Santos (solo@esoterica.pt)
e|-----------------------------------------|
b|-----9-9b(10)-(10)r(9)-------------------|
g|---9-------------------9-----------------|
d|-9-----------------------11------------9-|
a|----------------------------7-9-sl/-11---|
E|-----------------------------------------|
e|---------12-h-14-sl/-16-|
b|-17-p-12----------------|  <-- notice the correction
g|------------------------|
d|------------------------|
a|------------------------|
E|------------------------|
e|-16-17-17b(19)-(19)r17-16-----------------------|
b|--------------------------17--------------------|
g|-----------------------------16--------------16-|
d|--------------------------------14-16-sl/-18----|
a|------------------------------------------------|
E|------------------------------------------------|
e|-----------------------------------------------------|
b|-9b(10)r9----------------------9b(10)r9--------------|
g|----------9---------------9-11----------9-11b(13)r11-|
d|------------9-h-11-9-h-11----------------------------|
a|-----------------------------------------------------|
E|-----------------------------------------------------|
note: in this ^^^^^^^^^^^^^^ bit, the hammer ons are really fast

Продолжаем грести бабос на ботах в Telegram.
Только в этот раз есть вариант автоматизировать это дело, привлекая рефералов. Вы можете заработать если »

Distorted guitar: e|---------19---------------|----19b(21)-19b(21)r19-| b|-19b(21)----(21)r19-23-17-|-----------------------| g|--------------------------|-16--------------------| d|--------------------------|-----------------------| a|--------------------------|-----------------------| E|--------------------------|-----------------------| e|---------------------17b(19)-| b|-19b(21)r19-17----17---------| g|---------------18------------| d|-----------------------------| a|-----------------------------| E|-----------------------------| e|---------19---------------|----19b(21)-19b(21)r19-| b|-19b(21)----(21)r19-23-17-|-----------------------| g|--------------------------|-16--------------------| d|--------------------------|-----------------------| a|--------------------------|-----------------------| E|--------------------------|-----------------------| e|----------------------------------| b|-19b(21)r19-p-17-19-17-19b(21)-17-| g|----------------------------------| d|----------------------------------| a|----------------------------------| E|----------------------------------|








О сайтеАккордыХит-парадПоискУроки ФорумыИщу песню
ПрограммыСвежачок-сПодпискаСтатьи
Яндекс.Метрика