Табулатура Mike Oldfield | Ommadawn Part One (instrumental) гитара табулатуры уроки тексты песен Mike Oldfield текст lyrics песня аккорды песни ноты нота электрогитара струна  
   А Б В Г Д Е Ж З И К Л М Н О П Р С Т У Ф Х Ч Ш Ы Э Ю Я       Разные песни
1-9 A B C D E F G H I J K L M N O P Q R S T U V W Y Z      Все исполнители

    



группа Mike Oldfield, Табулатура песни Ommadawn Part One (instrumental)

Группа: Mike Oldfield - другие аккорды (207),   об исполнителе (3 статей),   диски (26),   фотографии (18)
Табулатура песни: Ommadawn Part One (instrumental)
Просмотров: 1001
Прислал: squire (cailinsquires@yahoo.ie)




    
Mike Oldfield
"Ommadawn", acoustic guitar intro on part one, 1:44.
(best played with two guitars, fine with just one)
tabbed by Pedro Couto e Santos, solo@esoterica.pt
e|------7-|-9-7-9-10-9-7-|---7-7-------|----------------------|
b|-9-10---|--------------|-9------10-9-|-7-sl/-10--10-10-10-9-|
g|--------|--------------|-------------|----------------------|
d|--------|--------------|-------------|----------------------|
a|--------|--------------|-------------|----------------------|
E|--------|--------------|-------------|----------------------|
e|--------------|----------------|-------------|---------------------|
b|---9-10-p-9-7-|-7--7-7-sl-5-5-|-------------|---------------------|
g|-9------------|----------------|-6-4-h-6-6---|---------------9-7-p-|
d|--------------|----------------|-----------7-|-7-sl/-9-9-9-9-------|
a|--------------|----------------|-------------|---------------------|
E|--------------|----------------|-------------|---------------------|
e|---------|
b|---------|
g|-6---6---|
d|---9---7-| next phrase starts over the last note of this one
a|---------| so either cut the last or first note, or get someone
E|---------| to play with you...
----------------------------------------------------------------------
e|------7-|-9-7-9-10-9-7-|---7-7-------|----------------------|
b|-9-10---|--------------|-9------10-9-|-7-sl/-10--10-10-10-9-|
g|--------|--------------|-------------|----------------------|
d|--------|--------------|-------------|----------------------|
a|--------|--------------|-------------|----------------------|
E|--------|--------------|-------------|----------------------|
e|--------------|-14--14-14-sl-12-12-|-9----9----|
b|---9-10-p-9-7-|---------------------|---12---10-|
g|-9------------|---------------------|-----------|
d|--------------|---------------------|-----------|
a|--------------|---------------------|-----------|
E|--------------|---------------------|-----------|
e|----------------12-10-|-9----9----|
b|-10-12-12-12-12-------|---12---10-|

Продолжаем грести бабос на ботах в Telegram.
Только в этот раз есть вариант автоматизировать это дело, привлекая рефералов. Вы можете заработать если »

g|----------------------|-----------| d|----------------------|-----------| a|----------------------|-----------| E|----------------------|-----------| ---------------------------------------------------------------------- e|------7-|-9-7-9-10-9-7-|---7-7-------|----------------------| b|-9-10---|--------------|-9------10-9-|-7-sl/-10--10-10-10-9-| g|--------|--------------|-------------|----------------------| d|--------|--------------|-------------|----------------------| a|--------|--------------|-------------|----------------------| E|--------|--------------|-------------|----------------------| e|--------------|-14--14-14-sl-12-12-|-9----9----| b|---9-10-p-9-7-|---------------------|---12---10-| g|-9------------|---------------------|-----------| d|--------------|---------------------|-----------| a|--------------|---------------------|-----------| E|--------------|---------------------|-----------| e|----------------12-10-|-9----9----|--------------| b|-10-12-12-12-12-------|---12---10-|---------9-10-| g|----------------------|-----------|-11---11------| d|----------------------|-----------|--------------| a|----------------------|-----------|--------------| E|----------------------|-----------|--------------| ---------------------------------------------------------------------- e|-----9-10-12-16-17-16-sl-|-9---------|----9-10-12-16-17-|-16-| b|-12-----------------------|------9-10-|-12---------------|----| g|--------------------------|---11------|------------------|----| d|--------------------------|-----------|------------------|----| a|--------------------------|-----------|------------------|----| E|--------------------------|-----------|------------------|----| ---------------------------------------------------------------------- That's it! Now just add some slurs and vibrato to make it sound just right, but, basically, I think I got the sound down. Enjoy! Pedro Couto e Santos solo@esoterica.pt








О сайтеАккордыХит-парадПоискУроки ФорумыИщу песню
ПрограммыСвежачок-сПодпискаСтатьи
Яндекс.Метрика