Табулатура Mike Oldfield | The Lake  (2) гитара табулатуры уроки тексты песен Mike Oldfield текст lyrics песня аккорды песни ноты нота электрогитара струна  
   А Б В Г Д Е Ж З И К Л М Н О П Р С Т У Ф Х Ч Ш Ы Э Ю Я       Разные песни
1-9 A B C D E F G H I J K L M N O P Q R S T U V W Y Z      Все исполнители

    



группа Mike Oldfield, Табулатура песни The Lake (2)

Группа: Mike Oldfield - другие аккорды (207),   об исполнителе (3 статей),   диски (26),   фотографии (18)
Табулатура песни: The Lake (2)
Просмотров: 751
Прислал: squire (cailinsquires@yahoo.ie)




    
The Lake by Mike Oldfield
Tabbed by Pedro Couto e Santos
Electric Guitar part at the end
e|---------------|-------|--------------------|------------------|
b|---------------|-------|--------------------|-3-sl/-15-12-h-14-|
g|-------2---4---|-------|--------------------|------------------|
d|-2-h-4---------|-------|--------4-h-5-p-4---|-4-sl/-16---14----|
a|---------------|-0-h-2-|------------------7-|-2-sl/-14---12----|
E|---------------|-------|--------------------|------------------|
e|-------------|------------------|-------------|-------------|-------5---------|
b|-12-10-8-7-5-|-3-sl/-15-12-h-14-|-12-10-8-7-5-|-3-sl/-12-10-|-5-h-7---5-7-5-2-|
g|-------------|------------------|-------------|-------------|-----------------|

Продолжаем грести бабос на ботах в Telegram.
Только в этот раз есть вариант автоматизировать это дело, привлекая рефералов. Вы можете заработать если »

d|-12-11-9-7-6-|-4-sl/-16---14----|-12-11-9-7-6-|-4-sl/-12-11-|---7-----6---4---| a|-10--9-7-5-4-|-2-sl/-14---12----|-10--9-7-5-4-|-2-sl/-10--9-|---5-----4---2---| E|-------------|------------------|-------------|-------------|-----------------| e|---------------|-------5---------| b|-h-3-sl/-12-10-|-5-h-7---5-7-5-2-| g|---------------|-----------------| d|-----sl/-12-11-|---7-----6---4---| a|-----sl/-10--9-|---5-----4---2---| E|---------------|-----------------|








О сайтеАккордыХит-парадПоискУроки ФорумыИщу песню
ПрограммыСвежачок-сПодпискаСтатьи
Яндекс.Метрика