Басовая табулатура Foreigner | Dirty White Boy гитара табулатуры уроки тексты песен Foreigner текст lyrics песня аккорды песни ноты нота электрогитара струна  
   А Б В Г Д Е Ж З И К Л М Н О П Р С Т У Ф Х Ч Ш Ы Э Ю Я       Разные песни
1-9 A B C D E F G H I J K L M N O P Q R S T U V W Y Z      Все исполнители

    



группа Foreigner, Басовая табулатура песни Dirty White Boy

Группа: Foreigner - другие аккорды (21),   о группе (4 статей),   диски (11),   фотографии (15)
Басовая табулатура песни: Dirty White Boy
Просмотров: 1212
Подобрал: Neo (neo-vzlom@mail.ru)




    
                                                    
Intro       ect            ect  Part1  ect
G---------------|---------------|--------------------|
D---------------|---------------|--------------------|
A---------------|-5-5-5-5-------|--------------0-1-2-|
E---3-3-3-3-----|---------------|-3-3-3-3------------|
                                                      
                                                           
Verse    ect       ect             ect        ect
G-----------|---------|----------------|---------|--------|
D-----------|---------|----------------|---------|--------|
A---3-3-3-3-|---------|-0-1-2--3-3-3-3-|---------|--0-3-4-|
E-----------|-3-3-3-3-|----------------|-3-3-3-3-|--------|
                                                           
                                                          
Chorus                                           Part1End
G--------------------------------------------------------|
D----------------------4-5-7-----------------------------|

Продолжаем грести бабос на ботах в Telegram.
Только в этот раз есть вариант автоматизировать это дело, привлекая рефералов. Вы можете заработать если »

A---5-5-5-5-5-5-5-5--5---------5-5-5-5-5-5-5-5-5-5-5---3-| E--------------------------------------------------------| THEN:Part1/Vocals Part1/Lead Part1/Vocals Outro ect 2x 2x G---|----------|--------------------------|---------------------------|-| D---|*---------|--------------------4-5-7-|--------------------------*|-| A---|*---------|-5-5-5-5-5-5-5-5--5-------|-5-5-5-5-5-5-5-5-5-5-5--3-*|-| E---|--3-3-3-3-|--------------------------|---------------------------|-|








О сайтеАккордыХит-парадПоискУроки ФорумыИщу песню
ПрограммыСвежачок-сПодпискаСтатьи
Яндекс.Метрика