Табулатура System Of A Down | Snowblind гитара табулатуры уроки тексты песен System Of A Down текст lyrics песня аккорды песни ноты нота электрогитара струна  
   А Б В Г Д Е Ж З И К Л М Н О П Р С Т У Ф Х Ч Ш Ы Э Ю Я       Разные песни
1-9 A B C D E F G H I J K L M N O P Q R S T U V W Y Z      Все исполнители in english

    



группа System Of A Down, Табулатура песни Snowblind

Группа: System Of A Down - другие аккорды (73),   диски (8),   фотографии (22)
Табулатура песни: Snowblind
Просмотров: 1286
Подобрал: Onyx (F_the_SyS@mail.ru)




    

Snowblind
C-G-C-E-A-D
h - флажолеты
PM - palm mute (глушить ладонью правой руки) 
Intro:
{______________PM_____________}
|---------------------------------------------------
|---------------------------------------------------
|-------------------------------333333-555555-------
|--------------------------000--333333-555555-------
|-55555-77777-888888-33333------111111-333333-------
|---------------------------------------------------
Riff B (Verse)  
                           {___PM__}
|---------------------------------------------------
|---7h--7h-------------7h---------------------------
|-7h--5h-------------7h---5pm-7h--------------------
|---------------0000---------------------0----------
|----------3333------------------3333333------------
|---------------------------------------------------    
 \\\"What you get is what you see....\\\"
Riff C
|----------------------------------------------------------
|----------------------------------------------------------
|----------------------------------------------------------
|--------------------------8-8-8-8-8-8--10--10-10-10-10-10-
|------------12--10-9-5-7--8-8-8-8-8-8--10--10-10-10-10-10-
|------------12--10-9-5-7--8-8-8-8-8-8--10--10-10-10-10-10-
\\\"Cocaine!!\\\"
 
{______________PM_____________}
|---------------------------------------------------
|---------------------------------------------------
|-------------------------------333333-555555-------
|--------------------------000--333333-555555-------
|-55555-77777-888888-33333------111111-333333-------
|---------------------------------------------------
Повторяется два раза, после чего вступает эта медленная партия:
 {________________________________PM_______________________________}
|---------------------------------------------------------------------
|---8-7-8-7-8-7-7----6-5-6-5-6-5-5----4-3-4-3-4-3-3----3-2-3-2-3-2-2--
|--7------7-----7---5------5-----5---3------3-----3---2------2-----2--
|-7----------------5----------------3----------------2----------------
|---------------------------------------------------------------------

Продолжаем грести бабос на ботах в Telegram.
Только в этот раз есть вариант автоматизировать это дело, привлекая рефералов. Вы можете заработать если »

|--------------------------------------------------------------------- (Bass Solo)(2x) G)-------------------------------------- D)-------------------------------------- A)-3-3-6-3-6-3--3-6-3-6-3-3-6-3-6-3----- E)----------------------------------666- (Heavy Part)(6x) G)---------------------------------------- D)---------------------------------------- A)--3-3-6-3-6-3----3-6-3-6-3-6-3---------- E)----------------------------------666--- После соло на басу играется эта гитарная партия: {_____________________________PM____________________________} |--------------------------------------------------------------------- |--------------------------------------------------------------------- |---------------------------------------------------------------5-5-5- |-0-0-3-3-3-0-0-3-3-3-0-0-3-3-3-0-0-3-3-3-0-0-3-3-3-0-0-3-3-3-0-5-5-5- |-0-0-3-3-3-0-0-3-3-3-0-0-3-3-3-0-0-3-3-3-0-0-3-3-3-0-0-3-3-3-0-3-3-3- |-0-0-3-3-3-0-0-3-3-3-0-0-3-3-3-0-0-3-3-3-0-0-3-3-3-0-0-3-3-3-0------- What you get and what you see Things that don\'t come easily Feeling happy in my vein Icicles within my brain(cocaine) Something blowing in my head Winter\'s ice, it soon was dead Death would freeze my very soul Makes me happy, makes me cold(cocaine) (CHOURS) My eyes are blind, but I can see The snowflakes glisten on the tree The sun no longer sets me free I feel there\'s no place freezing me Don\'t you think I know what I\'m doing Don\'t tell me that it\'s doing me wrong You\'re the one who\'s really a loser This is where I feel I belong Crystal world with winter flowers Turn my days to frozen hours Lying snowblind in the sun Will my ice age ever come?(cocaine) (CHOURS)








О сайтеАккордыХит-парадПоискУроки ФорумыИщу песню
ПрограммыСвежачок-сПодпискаСтатьи
Яндекс.Метрика