Табулатура Сплин | Мое сердце  (7) гитара табулатуры уроки тексты песен Сплин текст lyrics песня аккорды песни ноты нота электрогитара струна  
   А Б В Г Д Е Ж З И К Л М Н О П Р С Т У Ф Х Ч Ш Ы Э Ю Я       Разные песни
1-9 A B C D E F G H I J K L M N O P Q R S T U V W Y Z      Все исполнители in english

    



группа Сплин, Табулатура песни Мое сердце (7)

Группа: Сплин - другие аккорды (208),   о группе (11 статей),   диски (15),   фотографии (57)
Табулатура песни: Мое сердце (7)
Просмотров: 1021
Подобрал: tim (tim@saldanet.ru)




    
Соло после 1 и 2 припева
------------------------|----------------------|
------------------------|--10------------------|
------------11--11--12--|------------11--------|
------------------------|----------------------|
------------------------|----------------------|
------------------------|----------------------|
                                                        
--------------------------------|----------------------|
--12----10------10--------------|--10------------------|
------------12------11--11--12--|------------11--------|
--------------------------------|----------------------|
--------------------------------|----------------------|
--------------------------------|----------------------|
                                                       
-------------------------------|----------------------|
-------------------------------|--10------------------|
--12----11--9------11--11--12--|------------11--------|
---------------12--------------|----------------------|
-------------------------------|----------------------|
-------------------------------|----------------------|
                                                        
--------------------------------|----------------------|
--12----10------10--------------|--10------------------|
------------12------11--11--12--|------------11--------|
--------------------------------|----------------------|
--------------------------------|----------------------|
--------------------------------|----------------------|
                                                                
-------------------------|
-------------------------|
--12----11--9------------|
---------------12--------|
-------------------------|
-------------------------|
после 3 припева
                                                           
|--10----------------|
|--------------------|
|--------------------|
|--------------------|

Продолжаем грести бабос на ботах в Telegram.
Только в этот раз есть вариант автоматизировать это дело, привлекая рефералов. Вы можете заработать если »

|--------------------| |--------------------| --------10--10----9----|------------------------|--------------------| -----------------------|--10-----------10/12----|--10----------------| -----------------------|------------------------|--------------------| -----------------------|------------------------|--------------------| -----------------------|------------------------|--------------------| -----------------------|------------------------|--------------------| --10----------------|--------10--10----12----|--14----------12----10--| --------------------|------------------------|------------------------| --------------------|------------------------|------------------------| --------------------|------------------------|------------------------| --------------------|------------------------|------------------------| --------------------|------------------------|------------------------| --12--10----9--10--9----7--|--10----------------|--------10--10----9----| ---------------------------|--------------------|-----------------------| ---------------------------|--------------------|-----------------------| ---------------------------|--------------------|-----------------------| ---------------------------|--------------------|-----------------------| ---------------------------|--------------------|-----------------------| ----------------------|-------------------|--------------------| --10-----------7/8----|--7----------------|--10----------------| ----------------------|-------------------|--------------------| ----------------------|-------------------|--------------------| ----------------------|-------------------|--------------------| ----------------------|-------------------|--------------------| --------------------|--------------------|--------------------------| --14----------------|--17----------------|--19--19--19--19----------| --------------------|--------------------|--------------------------| --------------------|--------------------|--------------------------| --------------------|--------------------|--------------------------| --------------------|--------------------|--------------------------|








О сайтеАккордыХит-парадПоискУроки ФорумыИщу песню
ПрограммыСвежачок-сПодпискаСтатьи
Яндекс.Метрика