Табулатура Ария | Встань, страх преодолей гитара табулатуры уроки тексты песен Ария текст lyrics песня аккорды песни ноты нота электрогитара струна  
   А Б В Г Д Е Ж З И К Л М Н О П Р С Т У Ф Х Ч Ш Ы Э Ю Я       Разные песни
1-9 A B C D E F G H I J K L M N O P Q R S T U V W Y Z      Все исполнители in english

    



группа Ария, Табулатура песни Встань, страх преодолей

Работа в Европе для граждан РФ, Украины, СНГ

  • минимальная зарплата $500.
  • виза и контракт на полгода, возможно продление
  • проживание оплачивает работодатель
  • нужен только загранпаспорт
  • оформление 190 €
  • данное предложение - отличная возможность эмигрировать в Европу и закрепиться здесь навсегда.

  • Мы свяжемся с Вами по WhatsApp или Viber и ответим на любые вопросы.
    на нашем сайте можно почитать подробнее »

    Группа: Ария - другие аккорды (629),   о группе (7 статей),   диски (18),   фотографии (92)
    Табулатура песни: Встань, страх преодолей
    Просмотров: 3614
    Подобрал: ЛЕХА ( M242003@MAIL.RU)




        
    RIFF 1 (play 2 times):
    Gtr.1E||----------------------------------|---------------------------------||
         H||----------------------------------|---------------------------------||
         G||----------------------------------|---------------------------------||
         D||--7-----7-----7-----7-------------|-7-----7-----7-----7-----5-------||
         A||--5-5-5-5-5-5-5-5-5-5-5-5-7h8p7---|-5-5-5-5-5-5-5-5-5-5-5-5-3---7---||
         E||--------------------------------8-|-----------------------------5---||
              > . . > . . > . . > . . >         > . . > . . > . . > . . >   >
    (0:12 - 0:32)
    VERSE 1:
    VoiceE|--------------------------------------------------------------------|
         H|--------------------------------------------------------------------|
         G|--------------------------------------------------------------------|
         D|---3---3-3-----3----5----3-2--------3--3-3---3------5---------------|
         A|------------------------------5-------------------------------------|
         E|-Kto skazal chto strast\' opasna,   dobrota smesh - na,  ------------|
          |                                  |                                 |
    Gtr.1E|----------------------------------|---------------------------------|
         H|----------------------------------|---------------------------------|
         G|----------------------------------|---------------------------------|
         D|--7-----7-----7---7-----7-----7\\--|-3-----3-----3---3-----3-----3---|
         A|--5-5-5-5-5-5-5-5-5-5-5-5-5-5-5\\--|-1-1-1-1-1-1-1-1-1-1-1-1-1-1-1---|
         E|----------------------------------|---------------------------------|
             > . . > . . > . > . . > . . >     > . . > . . > . > . . > . . >
     
    VoiceE|--------------------------------------------------------------------|
         H|--------------------------------------------------------------------|
         G|--------------------------------------------------------------------|
         D|---2----2----2---2--3-2--2---2--------------------------------------|
         A|------------------------------------5-------------------------------|
         E|chto v nash vek  otvaga ne  nuzh - na?  ----------------------------|
          |                                  |                                 |
    Gtr.1E|----------------------------------|---------------------------------|
         H|----------------------------------|---------------------------------|
         G|----------------------------------|---------------------------------|
         D|-/5-----5-----5-------------------|-7-----7-----7-----7-------------|
         A|-/3-3-3-3-3-3-3--/7-----7-----7---|-5-5-5-5-5-5-5-5-5-5-5-5-7h8p7---|
         E|-----------------/5-5-5-5-5-5-5---|-------------------------------8-|
             > . . > . . >   > . . > . . >     > . . > . . > . . > . . >
     
    VoiceE|--------------------------------------------------------------------|
         H|--------------------------------------------------------------------|
         G|--------------------------------------------------------------------|
         D|--3--3----3---3----5--3---2---------3--3---3----3----5--------------|
         A|--------------------------------5-----------------------------------|
         E|-Kak i vstar\' ot  vetra chas - to  rushitsya  ste - na -------------|
          |                                  |                                 |
    Gtr.1E|----------------------------------|---------------------------------|
         H|----------------------------------|---------------------------------|
         G|----------------------------------|---------------------------------|
         D|--7-----7-----7---7-----7-----7\\--|-3-----3-----3---3-----3-----3---|
         A|--5-5-5-5-5-5-5-5-5-5-5-5-5-5-5\\--|-1-1-1-1-1-1-1-1-1-1-1-1-1-1-1---|
         E|----------------------------------|---------------------------------|
             > . . > . . > . > . . > . . >     > . . > . . > . > . . > . . >
     
    VoiceE|--------------------------------------------------------------------|
         H|--------------------------------------------------------------------|
         G|--------------------------------------------------------------------|
         D|--2---2--2-----2---3--2--2-----2------------------------------------|
         A|-----------------------------------5--------------------------------|
         E|Krepche bud\' - i  burya ne  strashna.  -----------------------------|
          |                                  |                                 |
    Gtr.1E|----------------------------------|---------------------------------|
         H|----------------------------------|---------------------------------|
         G|----------------------------------|---------------------------------|
         D|-/5-----5-----5-------------------|-7-----7-----7-----7-------------|
         A|-/3-3-3-3-3-3-3--/7-----7-----7---|-5-5-5-5-5-5-5-5-5-5-5-5-7h8p7p0-|
         E|-----------------/5-5-5-5-5-5-5---|---------------------------------|
             > . . > . . >   > . . > . . >     > . . > . . > . . > .
    (0:33 - 0:37)
    RIFF 2:
    Gtr.1E|----------------------------------|-6-------------------------------|
    Gtr.2H|------------------------------3-4-|-4---------------R---------------|
         G|--------------------------3-5-.-.-|-----------------E---------------|
         D|--8---------------0-2-3-5-.-.-----|-----------------S-------5-------|
         A|--8---------------.-.-.-.---------|-----------------T-------3---7---|
         E|--6-------------------------------|-----------------------------5---|
    (0:38 - 0:47) RIFF 1 (play 2 times)
    (0:48 - 1:07)
    VERSE 2:
       Kto skazal: \"O - din ne vo - in,  ne velichi - na\" ? 
    E|----------------------------------|---------------------------------|
    H|----------------------------------|---------------------------------|
    G|----------------------------------|---------------------------------|
    D|--7-----7-----7---7-----7-----7\\--|-3-----3-----3---3-----3-----3---|
    A|--5-5-5-5-5-5-5-5-5-5-5-5-5-5-5\\--|-1-1-1-1-1-1-1-1-1-1-1-1-1-1-1---|
    E|----------------------------------|---------------------------------|
        > . . > . . > . > . . > . . >     > . . > . . > . > . . > . . >
      Kto skazal: \"Dru - giye vre - me - na\" ? 
    E|----------------------------------|---------------------------------|
    H|----------------------------------|---------------------------------|
    G|----------------------------------|---------------------------------|
    D|-/5-----5-----5-------------------|-7-----7-----7-----7-------------|
    A|-/3-3-3-3-3-3-3--/7-----7-----7---|-5-5-5-5-5-5-5-5-5-5-5-5-7h8p7---|
    E|-----------------/5-5-5-5-5-5-5---|-------------------------------8-|
        > . . > . . >   > . . > . . >     > . . > . . > . . > . . >
       Mir zhestok  i  nespoko - yen,    za volnoy vol - na,
    E|----------------------------------|---------------------------------|
    H|----------------------------------|---------------------------------|
    G|----------------------------------|---------------------------------|
    D|--7-----7-----7---7-----7-----7\\--|-3-----3-----3---3-----3-----3---|
    A|--5-5-5-5-5-5-5-5-5-5-5-5-5-5-5\\--|-1-1-1-1-1-1-1-1-1-1-1-1-1-1-1---|
    E|----------------------------------|---------------------------------|
        > . . > . . > . > . . > . . >     > . . > . . > . > . . > . . >
       Ne  robey - i   ne  sobyot  oo - na.
    E|----------------------------------|---------------------------------|
    H|----------------------------------|---------------------------------|
    G|----------------------------------|---------------------------------|
    D|-/5-----5-----5-------------------|-7-----7-----7---7-------3p2p0---|
    A|-/3-3-3-3-3-3-3--/7-----7-----7---|-5-5-5-5-5-5-5-5-5-------------3-|
    
    Узнай ВСЕ о своем друге в ВК или FB
    E|-----------------/5-5-5-5-5-5-5---|---------------------------------| > . . > . . > > . . > . . > > . . > . . > . > (1:08 - 1:25) CHORUS: VoiceE|--------------------------------------------------------------------| H|--------------------------------------------------------------------| G|--------------------------------------------------------------------| D|--5-----------------------3-----5---7------3------------------------| A|----------------------------------------------5---------------------| E|Vstan\', strah pre - o - doley! -----------------| | | | Gtr. E|----------------------------------|---------------------------------| H|----------------------------------|---------------6-----------------| G|----------------3-----3p0-3p2p0---|-7-------------5-----------------| D|--5-------------3-----------------|-7---0-0-3p2p0-3---------3p2p0---| A|--5-------1p0---1-----------------|-5-----------------------------3-| E|--3---3-3-----3-------------------|---------------------------------| VoiceE|--------------------------------------------------------------------| H|--------------------------------------------------------------------| G|--------------------------------------------------------------------| D|--5-----------------------3-----5----7------------------------------| A|--------------------------------------------------------------------| E|Vstan\' v pol - nyy rost! ------------------------| | | | Gtr. E|----------------------------------|---------------------------------| H|----------------------------------|---------------6-----------------| G|----------------3-----3p0-3p2p0---|-7-------------5-----------------| D|--5-------------3-----------------|-7---0-0-3p2p0-3---------3p2p0---| A|--5-------1p0---1-----------------|-5-----------------------------3-| E|--3---3-3-----3-------------------|---------------------------------| VoiceE|--------------------------------------------------------------------| H|--------------------------------------------------------------------| G|--------------------------------------------------------------------| D|--5-----------------------3-----5---7------3------------------------| A|------------------------------------------------5-------------------| E|Vstan\' na zem - le svo - yey ------------| | | | Gtr. E|----------------------------------|---------------------------------| H|----------------------------------|---------------6-----------------| G|----------------3-----3p0-3p2p0---|-7-------------5-----------------| D|--5-------------3-----------------|-7---0-0-3p2p0-3---------3p2p0---| A|--5-------1p0---1-----------------|-5-----------------------------3-| E|--3---3-3-----3-------------------|---------------------------------| VoiceE|--------------------------------------------------------------------| H|--------------------------------------------------------------------| G|--------------------------------------------------------------------| D|---------2----------------------------------------------------------| A|-5----------5----3-1------0---------5-------------------------------| E|-i dostan\' rukoy do zvyozd. ----------------------| | | | Gtr. E|----------------------------------|- >--- RIFF 1 ---> -----| H|----------------------------------|---------------------------------| G|--3-------------------------------|---------------------------------| D|--3---------------5-------7-------|-7-----7-----7-----7-------------| A|--1---------------5-------7-------|-5-5-5-5-5-5-5-5-5-5-5-5-7h8p7---| E|------------------3-------5-------| > . . > . . > . . > . . > ---8-| (1:25 - 1:35) RIFF 1 (play 2 times; this includes the half of the previous line) (1:35 - 1:55) VERSE 3 (1:55 - 2:12) CHORUS (2:13 - 2:32) SOLO: (chords implied by bass) D5 Bb5 E|-13p10----------10-13p10----------10-13p10----------10-13p10----------10-|-13p10----------10-13p10----------10-13p10----------10-13p10----------10-| H|-------13-10-13----------13-10-13----------13-10-13----------13-10-13----|-------13-10-13----------13-10-13----------13-10-13----------13-10-13----| G|-------------------------------------------------------|-------------------------------------------------------| D|-------------------------------------------------------|-------------------------------------------------------| A|-------------------------------------------------------|-------------------------------------------------------| E|-------------------------------------------------------|-------------------------------------------------------| C5 A5 D5 E|-13-12-10-12-10----10----------------------------------------------------|-------------------------------------------------------------------------| H|----------------13----13-11-13-11-10-11-10----10-------------------------|-------------------------------------------------------------------------| G|-------------------------------------------12----12-10-12-10-9--10--9----|-9-----------------------------------------------------------------------| D|----------------------------------------------------------------------12-|----12-10-12-10----10----------------------------------------------------| A|-------------------------------------------------------------------------|----------------13----13-12-13-12-10-12-10----10-------------------------| E|-------------------------------------------------------------------------|-------------------------------------------13----13-12-13-12-10-12-------| D5 Bb5 E|-------------------------------------------------------|-------------------------------------------------------| H|-----------------------------------------------5-------|-------------------------------------------------------| G|----------------------------------------0h2h3----------|-3p2p0--5p3p0--7p5p0--9p7p0-10p9p0-12p10p0-14p12p0-15--| D|--0--2--3------------------------0h2h3-----------------|-------------------------------------------------------| A|-----------0--1--3-----0--0h1h3------------------------|-------------------------------------------------------| E|--------------------3----------------------------------|-------------------------------------------------------| C5 A5 D5 E|-------------------------------------------------------|-------------------------------------------------------| H|-<13-10-11---------------------------------------------|<10>-10-11-<8>-8h10p8h10-------8-<8>----------8------------| G|------------9--10-12-10--9--10>-------9--10--9---------|---------------------10-10--------9--10------7--9--10--| D|-------------------------------10-12-------------------|-------------------------------------------------------| A|- <---- semi-harmonics ----> ------------------------|-------------------------------------------------------| E|-------------------------------------------------------|-------------------------------------------------------| (2:33 - 3:03) RIFF 3: ( *6 times ) E||------------------------------------------------------|------------------------------------------------------|| H||-10-----8------------------10-----8-------------------|-10-----8------------------10-----8-------------------|| G||----10-----9--10--7--9--10----10-----9--10--7--9--10--|----10-----9--10--7--9--10----10-----9--10--7--9--10--|| D||------------------------------------------------------|------------------------------------------------------|| A||------------------------------------------------------|------------------------------------------------------|| E||------------------------------------------------------|------------------------------------------------------|| (3:03 - 3:07) repeat Riff 2: Gtr.1E|----------------------------------|-6-------------------------------| Gtr.2H|------------------------------3-4-|-4---------------R---------------| G|--------------------------3-5-.-.-|-----------------E---------------| D|--8---------------0-2-3-5-.-.-----|-----------------S-------5-------| A|--8---------------.-.-.-.---------|-----------------T-------3---7---| E|--6-------------------------------|-----------------------------5---|

    лекарство в аптеке
    список лекарств






    О сайтеАккордыХит-парадПоискУроки ФорумыИщу песню
    ПрограммыСвежачок-сПодпискаСтатьи
    Яндекс.Метрика