Табулатура Amorphis | Far From The Sun гитара табулатуры уроки тексты песен Amorphis текст lyrics песня аккорды песни ноты нота электрогитара струна  
   А Б В Г Д Е Ж З И К Л М Н О П Р С Т У Ф Х Ч Ш Ы Э Ю Я       Разные песни
1-9 A B C D E F G H I J K L M N O P Q R S T U V W Y Z      Все исполнители in english

    



группа Amorphis, Табулатура песни Far From The Sun

Работа в Европе для граждан РФ, Украины, СНГ

  • минимальная зарплата $500.
  • виза и контракт на полгода, возможно продление
  • проживание оплачивает работодатель
  • нужен только загранпаспорт
  • оформление 190 €
  • данное предложение - отличная возможность эмигрировать в Европу и закрепиться здесь навсегда.

  • Мы свяжемся с Вами по WhatsApp или Viber и ответим на любые вопросы.
    на нашем сайте можно почитать подробнее »

    Группа: Amorphis - другие аккорды (26),   о группе (8 статей),   диски (7),   фотографии (20)
    Табулатура песни: Far From The Sun
    Просмотров: 1719
    Подобрал: Rodrigo Sadi




        
    |-----------------------------3--------------------------------------------|
    |-------3----------------------------------------3-------------------------|
    |----------5---2-----------------5---2-------------5---2-----2h3p2---------|
    |-----5-----------3-----(5)5------------3------5----------3--------4--5----|
    |--------------------------------------------------------------------------|
    |--3-------------------3--------------------3------------------------------|
    
     G5                    G5              G5                     D#5    C              |-----------------------------3--------------------------------------------|
    |-------3----------------------------------------3-------------------------|
    |----------5---2-----------------5---2-------------5---2-----2h3p2---------|
    |-----5-----------3-----(5)5------------3------5----------3--------4--5----|
    |--------------------------------------------------------------------------|
    |--3-------------------3--------------------3------------------------------|
    
    G5         F5   G5               G5       F5      D#5        C5                   
    Nothing is more than too much I'm waiting for the tarnishing touch
       G5           F5    G5           G5       F5      D#5       C5                   
    you wish for the last kiss goodbye like the child that cannot lie.
    
    |---------------------------------------------------------------------------|
    |-------3---------------------3-------------------3--------------3----------|
    |----------5---2-----------------5---2--------------5---2-----------5---2---|
    |-----5-----------3--------5------------3------5----------3----5----------3-|
    |---------------------------------------------------------------------------|
    |--3-------------------3--------------------3----------------3--------------|
    
      G5    D#5     F5                 G5    D#5        F5                          
    I walk away now from you and your sun it goes down from you
         G5   D#5      F5       G5  D#5       F5       
    as I walk away now from you far from your sun.
    while the other guitar does this
    |---------------------------------|
    |---3--3--4--3--------------------|
    |---3--3--3--3--3-----------------|
    |-5-------------------------------|
    |---------------------------------|
    |---------------------------------|
    
    G5                    G5              G5                     D#5    C5              |-----------------------------3--------------------------------------------|
    |-------3----------------------------------------3-------------------------|
    |----------5---2-----------------5---2-------------5---2-----2h3p2---------|
    |-----5-----------3-----(5)5------------3------5----------3--------4--5----|
    |--------------------------------------------------------------------------|
    |--3-------------------3--------------------3------------------------------|
    
    G5          F5             G5                 G5    F5                            
    holding the wounds of the bleeding souls you summon all the 
    D#5       C5     G5        F5       G5      G5      F5          D#5    C5 
    restless folk to share the feast of anxiety like the spawn that cannot breed.
    
    |-----------------------------3-----------------------------------3---------|
    |-------3----------------------------------------3--------------------------|
    |----------5---2-----------------5---2-------------5---2-------------5--2---|
    |-----5-----------3--------5------------3------5----------3-----5----------3|
    |---------------------------------------------------------------------------|
    |--3-------------------3--------------------3-----------------3-------------|
                                                                                        
                                           
     G5    D#5     F5                 G5    D#5        F5                          
    I walk away now from you and your sun it goes down from you
         G5   D#5      F5       G5  D#5       F5       
    as I walk away now from you far from your sun.
    while the other guitar does this
    |---------------------------------|
    |---3--3--4--3--------------------|
    |---3--3--3--3--3-----------------|
    |-5-------------------------------|
    |---------------------------------|
    |---------------------------------|
    
    |-----------------------------3--------------------------------------------|
    |-------3----------------------------------------3-------------------------|
    |----------5---2-----------------5---2-------------5---2-----2h3p2---------|
    |-----5-----------3-----(5)5------------3------5----------3--------4--5----|
    
    Узнай ВСЕ о своем друге в ВК или FB
    |--------------------------------------------------------------------------| |--3-------------------3--------------------3------------------------------| |----------------------------------------------------------------| |-8-6-8-6--------------------------------------------------------| |---------7--5---------------------------------------------------| |--------------8--8-7-8-7--5-----5-------------------------------| |----------------------------8-----------------------------------| |----------------------------------------------------------------| play this a few times and keep doing it while the other guitar does |---------------------------------------------8/10--8------------| |-8---6----------8--6------8--6---------8--6---------------------| |----------------------------------------------------------------| |---------8---5-------8--5------8--5-----------------------------| |----------------------------------------------------------------| |----------------------------------------------------------------| during the chorus and a prelude to the solo is |---10--8-10-----10--8-10----10---13--15--15----------------------| |-8------------8----------8-----------------15--13-15---12--10----| |-----------------------------------------------------------------| |-----------------------------------------------------------------| |-----------------------------------------------------------------| |-----------------------------------------------------------------| then the solo |-----------------------------------------------------| |---------------------------8-6-8-6-8-----------------| |-7-5-7-5--------------5-7----------------------------| |---------8-7-5--5-7-8--------------------------------| |-----------------------------------------------------| |-----------------------------------------------------| |-6-5---------------8-6-5---------6-5----------------------------| |-----8-6-8--6--8---------8--6--8------8-6-8--6--8---8--6--------| |----------------------------------------------------------------| |----------------------------------------------------------------| |----------------------------------------------------------------| |----------------------------------------------------------------| from now on play really fast |-6-5-6-5-------6-5-6-5--------8-6-8-6--5-----8-6-8-6--5---------| |---------8-6-8---------8-6-8--------------7--------------7------| |----------------------------------------------------------------| |----------------------------------------------------------------| |----------------------------------------------------------------| |----------------------------------------------------------------| really really fast |-10-8-10-8------------------------------------------------------| |-----------11-10-11-10-11-10-8-----8---8-8----8-----------------| |-------------------------------10----10----10-------------------| |----------------------------------------------------------------| |----------------------------------------------------------------| |----------------------------------------------------------------| O.K now you can slow down a bit |----------------------------------------------------------------| |----------------------------------------------------------------| |----------------------------------------------------------------| |--8-7-8-7-5---5-5--8-7-------5----------------------------------| |------------8----------8--5-------------------------------------| |----------------------------------------------------------------| h-hammer on p-pull off /-slide ()-the second time around you play the note

    лекарство в аптеке
    список лекарств






    О сайтеАккордыХит-парадПоискУроки ФорумыИщу песню
    ПрограммыСвежачок-сПодпискаСтатьи
    Яндекс.Метрика