Табулатура Mike Oldfield | Portsmouth гитара табулатуры уроки тексты песен Mike Oldfield текст lyrics песня аккорды песни ноты нота электрогитара струна  
   А Б В Г Д Е Ж З И К Л М Н О П Р С Т У Ф Х Ч Ш Ы Э Ю Я       Разные песни
1-9 A B C D E F G H I J K L M N O P Q R S T U V W Y Z      Все исполнители

    



группа Mike Oldfield, Табулатура песни Portsmouth

Группа: Mike Oldfield - другие аккорды (207),   об исполнителе (3 статей),   диски (26),   фотографии (18)
Табулатура песни: Portsmouth
Просмотров: 873
Прислал: squire (cailinsquires@yahoo.ie)




    
Song: Portsmouth.
Live: Berlin 2000   (Art In Heaven).
Author: Mike Oldfield.
Mois?s Ferrer Serra
infografista@yahoo.es
Well, here is the tab of the Portsmouth song, played live in Berlin concert.
I think there are two guitars playing, one playing chords and other playing
different tunes, but it's too difficult to me to separate them.  So I tabbed
in a form that you can play both of them (well, it sounds similar, I think).
If you would like to play this with two guitars, play chords with one (with
a distorted sound) and play the tunes with other (the sound changes along the
song).
The chords are this:
      C               F               G
E|----8---|     E|----8---|     E|---10---|
B|----8---|     B|---10---|     B|---12---|
G|----9---|     G|---10---|     G|---12---|
D|---10---|     D|---10---|     D|---12---|
A|---10---|     A|----8---|     A|---10---|
E|----8---|     E|----8---|     E|---10---|
Tab notation
s --> slide
b --> bend
r --> release bend
x --> unpitched mute
h --> hammer on
p --> pull off
     (0:48)
E|--------------------------------------------------------------------------------------|
B|---------------------------------------------------10---10----------------------------|
G|---------------------------------------------------10---10----------------------------|
D|---10-10-10-10----10-9--------10-10-10-10----10-10-10---10-10-10-10-10----9-10--------|
A|---------------10------10-10x-------------10----------8----------------10-------------|
E|--------------------------------------------------------------------------------------|
E|--------------------------------------------------------------------------------------|
B|--------------------------------------10-10-10----------------------------------------|
G|--------------------------------------10-10-10----------------------------------------|
D|---10x-----10----10-10-10-10----10-10-10-10-10-10-10-10-10----10-9-----10-10-10-10----|
A|-------10x----10-------------10----------------------------10------10x----------------|
E|--------------------------------------------------------------------------------------|
E|--------------------------------------------------------------------------------------|
B|------------------10------------------------------------------------------------------|
G|------------10----10----------------------9------9----------------------9-----9-------|
D|------10-10----10-10-10-10-10-10----9-10-10-----10-10-10-10-10----9-10-10----10-10----|
A|---10----10--------8-------------10---------10x----------------10------10-10-10-------|
E|---------------------------------------------------------------------------8----------|
E|--------------------------------------------------------------------------------------|
B|---------------------------------------------------10---10----------------------------|
G|---------------------------------------------------10---10----------------------------|
D|---10-10-10-------------10-12-10-10-10-10----10-10-10---10-10-10-10-10----9-10--------|
A|---------------7-8---10-------------------10----------8----------------10-------------|
E|------------10-----10-----------------------------------------------------------------|
E|----------------------------------------------------------8---------------------------|
B|------------------------------------------------------12--8---------------------------|
G|----9-----9-----------9--9-----9----------------------12--9------------------9-10x----|
D|---10----10-10-10----10-10-10-10----------------------12-10-10x-10x---------10-10x----|
A|------10----10----10-10-10----10-10p7------7h8----10x-10-10---------10x-10x-10--------|
E|--------------------------------------8h10-----10-------------------------------------|
E|--------------------------------------|
B|-------------8h10p8-------------------|
G|---10x-10----------------12-----------|
D|---10x-10-10--------9-10----10-10-----|
A|--------------------------------------|
E|--------------------------------------|
     (1:30)
     C                 F                 c                 G                 C
E|-------8--------8--8-----8--------8--8-----8--------8--8----10-------10-10-----8---|
B|-------8--------8--8----10-------10-10-----8--------8--8----12-------12-12-----8---|
G|-------9--------9--9----10-------10-10-----9--------9--9----12-------12-12-----9---|
D|---10-10-10-10-10-10-10-10-10-10-10-10-10-10-10-10-10-10-12-12-12-12-12-12-10-10---|
A|-----------------------------------------------------------------------------------|
E|-----------------------------------------------------------------------------------|
                 F                 C           G           C
E|----------8--8-----8--------8--8--------8--8-------10-10--------8--8--------8--8---|
B|----------8--8----10--------8--8--------8--8-------12-12--------8--8--------8--8---|
G|----------9--9----10-------10-10--------9--9-------12-12--------9--9--------9--9---|
D|---10-10-10-10-10-10-10-10-10-10-10-10-10-10-12-12-12-12-10-10-10-10-10-10-10-10---|
A|-----------------------------------------------------------------------------------|
E|-----------------------------------------------------------------------------------|
                       F                    c                 G                 C
E|-------8--------8--8--------8--------8--8-----8--------8--8-------10-------10------|
B|-------8--------8--8-------10-------10-10-----8--------8--8-------12-------12------|
G|-------9--------9--9-------10-------10-10-----9--------9--9-------12-------12------|

Продолжаем грести бабос на ботах в Telegram.
Только в этот раз есть вариант автоматизировать это дело, привлекая рефералов. Вы можете заработать если »

D|---10-10-10-10-10-10-10-10-10-10-10-10-10-10-10-10-10-10-10-12-12-12-12-12-12-10---| A|-----------------------------------------------------------------------------------| E|-----------------------------------------------------------------------------------| F C F E|----8--------8--8--------8--------8--8--------8--8-------10----8-------| B|----8--------8--8-------10-------10-10--------8--8-------12------------| G|----9--------9--9-------10-------10-10--------9--9-------12-------9----| D|---10-10-10-10-10-10-10-10-10-10-10-10-10-10-10-10-12-12-12-10---10----| A|-----------------------------------------------------------------10----| E|------------------------------------------------------------------8----| (1:52) C F C G C E|-----------------------------------------------------------------------| B|------------------------------------------------------12-12-12-12------| G|----9--9--9--9--9--9-10--9--9--9--9-12--9-10--9-10--9-12-12-12-12------| D|---10-10-10-10-10-10-10-10-10-10-10-12-10-10-10-10-10-12-12-12-12-10---| A|---10-10-10-10-10-10--8-10-10-10-10-10-10--8--8--8--8-10-10-10-10-10---| E|----8--8--8--8--8--8--8--8--8--8--8-10--8--8--8--8--8--------------8---| E|-------------------------------------------------------------| B|---------------------10--8--8--8-----------------------------| G|---7-9p7------7------10--9--9--9-9-12-12-12--9--9------------| D|---------10-7---7-10-10-10-10-10---12-------10-10-10-10-10---| A|------------------------10-10-10---10-------10-10-10-10-10---| E|-----------------------------------10--------8--8--8--8--8---| (2:02) E|-----8-10b12r10-8p7-8-8-8----8-8----------------------------------------------------| B|---8---------------------------------------------------------------------------10---| G|---------------------------9------9-9----9h10-12-12-12-12--9--9-7-9h7------7---10---| D|--------------------------10-----10---12------12-12-12-12-10-10-------10-9---7-10---| A|--------------------------10-----10-----------10-10-10-10-10-10-----------------8---| E|---------------------------8------8-----------10-10-10-10--8--8---------------------| E|----------------8-------10--------8-----8--------8-------8-------8--8--8--8--8------| B|---10-10--------8-------12--------8-----8--------8-------8------10-10-10--8--8------| G|---10-10--9-----9--9----12--9-----9-----9--9-----9--9----9-10---10-10-10--9--9------| D|---10-10-10----10-10----12-10----10----10-10----10-10---10-10---10-10-10-10-10------| A|----8--8----10-10----10-10----10-10-10-10----10-10----9-10----8--8------------------| E|----------------8-------10--------8--8--8--------8-------8-------8------------------| E|--------------------------------------------------------8--8--8---12p8---10-8-8-8---| B|----------------------13-15-15h17p15-13-13h15h17p15p13-10-10-10-8------8----8-------| G|---9r7-------------------------------------------------10-10-10-------------9-------| D|-------12-10-10b12r10----------------------------------10-10-10---------------------| A|--------------------------------------------------------8--8--8---------------------| E|------------------------------------------------------------------------------------| E|---8----------------------------13-12-------12-------------------8--------8--8--8---| B|-----13-15-15h17p15-13----13-13-------13-------13-13h15-12-------8--------8--8-10---| G|-----------------------16----------------12----------------12--9-9--9--9--9--9-10---| D|--------------------------------------------------------------10---10-10-10-10-10---| A|--------------------------------------------------------------10----------------8---| E|---------------------------------------------------------------8----------------8---| (2:31) E|---13b15-12-12s13-12----------12----15-19b20-20-22b24r22-22-20r19-20----------20----| B|---------------------15-13-13----13----------------------------------20----20-------| G|------------------------------------------------------------------------21----------| D|------------------------------------------------------------------------------------| A|------------------------------------------------------------------------------------| E|------------------------------------------------------------------------------------| E|---20-20-22-22-22-20----20-22-24-22-20-20----20-20-20-20-20-20-20-20-24-20----20----| B|---------------------20-------------------22-22----------22----------------20-------| G|------------------------------------------------------------------------------------| D|------------------------------------------------------------------------------------| A|------------------------------------------------------------------------------------| E|------------------------------------------------------------------------------------| E|---22----------20-20-20-20-20-20-20-20-20-20-20-22-24----20-19-20-------------------| B|------20----20----------------------------------------20----------20----20----20----| G|---------21----------------------------------------------------------21----21-------| D|------------------------------------------------------------------------------------| A|------------------------------------------------------------------------------------| E|------------------------------------------------------------------------------------| E|------------------------------------------------------17----------19-20-22-19-20----| B|------------------------------15-17-15-------18----------18-20-20-------------------| G|---22-21-19-19-19-19-19s17-17----------17-17----17-17-------------------------------| D|------------------------------------------------------------------------------------| A|------------------------------------------------------------------------------------| E|------------------------------------------------------------------------------------| E|-------------------------------| B|---20-17-20----17--------------| G|------------17-------17--------| D|------------------17----14-----| A|-------------------------------| E|-------------------------------|








О сайтеАккордыХит-парадПоискУроки ФорумыИщу песню
ПрограммыСвежачок-сПодпискаСтатьи
Яндекс.Метрика