Табулатура Mike Oldfield | First Steps гитара табулатуры уроки тексты песен Mike Oldfield текст lyrics песня аккорды песни ноты нота электрогитара струна  
   А Б В Г Д Е Ж З И К Л М Н О П Р С Т У Ф Х Ч Ш Ы Э Ю Я       Разные песни
1-9 A B C D E F G H I J K L M N O P Q R S T U V W Y Z      Все исполнители

    



группа Mike Oldfield, Табулатура песни First Steps

Группа: Mike Oldfield - другие аккорды (207),   об исполнителе (3 статей),   диски (26),   фотографии (18)
Табулатура песни: First Steps
Просмотров: 593
Прислал: squire (cailinsquires@yahoo.ie)




    
First steps real piano
By ARCOSS arcoss@terra.es
E-0--------0---------0---0-----------0-------0---------------------------------------------
B---1-0-------1-0------3-----0-1-0-----1-0-----1-0---3-1-3------0-1---3-0-----3-0----------
g-------2--2------2--------2-------2-2-----2-2-----2-------0--2-----2-----2-0-----2-0------
D------------------------------------------------------------------------------------------
A------------------------------------------------------------------------------------------
E------------------------------------------------------------------------------------------
E-------------------0-------0--------5-3-----0-------0-------0-------0---0-----------------
B--3-1-3------0-1-----1-0-----1-0--------1-3---0-1-3---1-0-----1-0-----3-------------------
G--------0--2-----2-------2-------2------------------------2-2-----2-------2---------------
D------------------------------------------------------------------------------------------
A------------------------------------------------------------------------------------------
E------------------------------------------------------------------------------------------
E----------0-------0------------------------------------------------------0-------0--------
B--0-1-0-----1-0-----1-0---3-1-3-----0-1---3-0-----3-0-----3-1-3-----0-1-----1-0-----1-0---
G--------2-2-----2-2-----2-------0-2-----2-----2-0-----2-0-------0-2-----2-------2-------2-

Продолжаем грести бабос на ботах в Telegram.
Только в этот раз есть вариант автоматизировать это дело, привлекая рефералов. Вы можете заработать если »

D------------------------------------------------------------------------------------------ A------------------------------------------------------------------------------------------ E------------------------------------------------------------------------------------------ E-5-3-----0-------0-------0-------0---0-----------0-------0-------------------------------- B-----1-3---0-1-3---1-0-----1-0-----3-----0-1-0-----1-0-----1-0---3-1-3----0-1---3-0------- G-----------------------2-2-----2-------2-------2-2-----2-------2-------0-2----2-----2-0--- D------------------------------------------------------------------------------------------ A------------------------------------------------------------------------------------------ E------------------------------------------------------------------------------------------ E------------------------0-------0--------5-3-----0---------------------------------------- B-3-0-----3-1-3----0-1-----1-0-----1-0--------1-3---0-1-3---------------------------------- G-----2-0------0-2-----2-------2-------2--------------------------------------------------- D------------------------------------------------------------------------------------------ A------------------------------------------------------------------------------------------ E------------------------------------------------------------------------------------------








О сайтеАккордыХит-парадПоискУроки ФорумыИщу песню
ПрограммыСвежачок-сПодпискаСтатьи
Яндекс.Метрика