Табулатура Mike Oldfield | Broad Sunlit Uplands гитара табулатуры уроки тексты песен Mike Oldfield текст lyrics песня аккорды песни ноты нота электрогитара струна  
   А Б В Г Д Е Ж З И К Л М Н О П Р С Т У Ф Х Ч Ш Ы Э Ю Я       Разные песни
1-9 A B C D E F G H I J K L M N O P Q R S T U V W Y Z      Все исполнители

    



группа Mike Oldfield, Табулатура песни Broad Sunlit Uplands

Группа: Mike Oldfield - другие аккорды (207),   об исполнителе (3 статей),   диски (26),   фотографии (18)
Табулатура песни: Broad Sunlit Uplands
Просмотров: 917
Прислал: squire (cailinsquires@yahoo.ie)




    
Music: Mike oldfield
song: broad sunlit uplands
Tabber: olle h?ger
Hi! I've tabbed the piano part
e------0h1p0---------0-----8--0--0------7------------5-----------
b--3----------3--------------------------------------------------
g--------------------2--------------7------7--7--5------5--5--4--
d----------------------------------------------------------------
a----------------------------------------------------------------
E----------------------------------------------------------------
e------0----8--0--0------7------------5------------
b-1-3----------------------------------------------
g------2--------------7------7--7--5------5--5--4--
d--------------------------------------------------
a--------------------------------------------------
E--------------------------------------------------

Продолжаем грести бабос на ботах в Telegram.
Только в этот раз есть вариант автоматизировать это дело, привлекая рефералов. Вы можете заработать если »

e-------------3----------------5-------------7-8----- b--1h3--------------0-1-0---------0-1-3-1------------ g------2---------2--------------------------------5-7 d---------------------------------------------------- a-----(0)-------------------------------------------- E---------------------------------------------------- e-------------3----------------5-------------7-8----- b--1h3--------------0-1-0---------0-1-3-1------------ g------2---------2--------------------------------5-7 d---------------------------------------------------- a-----(0)-------------------------------------------- E---------------------------------------------------- if there's any question, mail me at guitarist_39@hotmail.com olle h?ger








О сайтеАккордыХит-парадПоискУроки ФорумыИщу песню
ПрограммыСвежачок-сПодпискаСтатьи
Яндекс.Метрика