Табулатура Mike Oldfield | Lake Constance  (2) гитара табулатуры уроки тексты песен Mike Oldfield текст lyrics песня аккорды песни ноты нота электрогитара струна  
   А Б В Г Д Е Ж З И К Л М Н О П Р С Т У Ф Х Ч Ш Ы Э Ю Я       Разные песни
1-9 A B C D E F G H I J K L M N O P Q R S T U V W Y Z      Все исполнители

    



группа Mike Oldfield, Табулатура песни Lake Constance (2)

Группа: Mike Oldfield - другие аккорды (207),   об исполнителе (3 статей),   диски (26),   фотографии (18)
Табулатура песни: Lake Constance (2)
Просмотров: 817
Прислал: squire (cailinsquires@yahoo.ie)




    
Song: Lake Constance
Album: The Millennium Bell
Author: Mike Oldfield
Mois?s Ferrer Serra
infografista@yahoo.es
Tab notation
s -> slide
h -> hammer on
9< -> slide down (from 9 to an indeterminate fret)
<9 -> slide down (from anywhere upper than 9, to 9)
>9 -> slide up (from anywhere lower than 9 to 9)
9> -> slide up (from 9 to anywhere upper)
     (2:32)
E|-------------5-7-9<-------------------7-7-----------------------5-7-9s12-12---|
B|---5-------5--------5---------------5-----10-10s5-5-----------5---------------|
G|---------6--------------4-6-7-----6-------------------4-----6-----------------|
D|-------7--------------7---------7-------------------7-----7-------------------|
A|-----7--------------7---------7-------------------------7---------------------|
E|------------------------------------------------------------------------------|
E|------9-10-12-10-9s5-5-9-7---|
B|---12------------------------|
G|-----------------------------|
D|-----------------------------|
A|-----------------------------|
E|-----------------------------|
     (2:53)
E|-------------5-7-9<----------------7-7-----------------------5-7-9s12-12---|
B|---5-------5--------5------------5-----10-10s5-5-----------5---------------|
G|---------6--------------4-6----6-------------------4-----6-----------------|
D|-------7--------------7-------7------------------7-----7-------------------|
A|-----7----------------------7------------------------7---------------------|
E|---------------------------------------------------------------------------|
E|------9-10-12-10-9s5-5-7s9-7---|
B|---12--------------------------|
G|-------------------------------|
D|-------------------------------|
A|-------------------------------|

Продолжаем грести бабос на ботах в Telegram.
Только в этот раз есть вариант автоматизировать это дело, привлекая рефералов. Вы можете заработать если »

E|-------------------------------| (3:23) E|---------------------------------0---| B|---------4-6-5-------4-6-------0-----| G|---4-5-7------4-5-7----------1-------| D|---------------------------2---------| A|-------------------------2-----------| E|-------------------------------------| (4:07) E|-----------5-7s9-9-----------------7-7-----------------5h7-7-9-10-12-10-9s5---| B|---------5---------------5-------5-----10-10s5-------5------------------------| G|-------6---------------6-------6-------------------6--------------------------| D|-----7---------------7-------7-------------------7----------------------------| A|---7---------------7-------7-------------------7------------------------------| E|------------------------------------------------------------------------------| E|---5-9-7---| B|-----------| G|-----------| D|-----------| A|-----------| E|-----------| (4:28) E|---7-9-10-10-9-9s7-7---------------9----------10-8-8-7-7------| B|---------------------10-------5-12---------10------------10---| G|----------------------------6-----------10--------------------| D|--------------------------7----------12-----------------------| A|------------------------7-------------------------------------| E|--------------------------------------------------------------| (5:00) E|---------5-7-----------5---| B|---5-6-8-------------5-----| G|-------------------6-------| D|-----------------7---------| A|---------------7-----------| E|-------------5-------------|








О сайтеАккордыХит-парадПоискУроки ФорумыИщу песню
ПрограммыСвежачок-сПодпискаСтатьи
Яндекс.Метрика