Табулатура Mike Oldfield | Out Of Mind гитара табулатуры уроки тексты песен Mike Oldfield текст lyrics песня аккорды песни ноты нота электрогитара струна  
   А Б В Г Д Е Ж З И К Л М Н О П Р С Т У Ф Х Ч Ш Ы Э Ю Я       Разные песни
1-9 A B C D E F G H I J K L M N O P Q R S T U V W Y Z      Все исполнители

    



группа Mike Oldfield, Табулатура песни Out Of Mind

Группа: Mike Oldfield - другие аккорды (207),   об исполнителе (3 статей),   диски (26),   фотографии (18)
Табулатура песни: Out Of Mind
Просмотров: 821
Прислал: squire (cailinsquires@yahoo.ie)




    
Mike Oldfield: Out Of Mind, acoustic part (beginning)
***** Guitars - Out Of Mind *****
by G·bor Bella, bg220@hszk.bme.hu
This might not be *exactly* the same as he plays it, but I'm sure it's pretty
close. Actually, this is the way how I play it.
s: slide (up or down)
h: hammer on
p: pull off
*: staccato
                            *
-------|-----------------------|-----------------|-----------------|
-5-7-8-|-10s12------12s10---10-|---8-----8s7-----|-7p5---5---3---3s|
-------|-0---------------------|-----6-------7---|-----------4---4s|
-------|-------12-9-------7-0--|-------7-------7-|-----7-----5---5s|
-------|-----------------------|---0-------------|-----0-----------|
-------|-----------------------|-----------------|-----------------|
           (almost exactly the same)  *
-----------------|-----------------------|-----------------|-----------------|
--s5---5---5-7-8-|-10s12------12s10---10-|---8-----8s7-----|-7p5---5---3---3s|
--s6---6---------|-0---------------------|-----6-------7---|-----------4---4s|

Продолжаем грести бабос на ботах в Telegram.
Только в этот раз есть вариант автоматизировать это дело, привлекая рефералов. Вы можете заработать если »

--s7---7---------|-------12-9-------7-0--|-------7-------7-|-----7-----5---5s| -----------------|-----------------------|---0-------------|-------0---------| -----------------|-----------------------|-----------------|-----------------| * * -----------------|-----------------|-------------------|---------3---2h3p2p| --s5---5---5-5-5-|-5-3-3---3---0-0-|-h2p0--------5-5-5-|-5-----3---3-------| --s6---6---------|---4-4---4---0-0-|-----2---2---------|-----4-------------| --s7---7---------|---5-5---5---0-0-|-----2---2---------|---5---------------| -----------------|-----------------|-----0-------------|-------------------| -----------------|-----------------|-------------------|-------------------| * * * * p0---------------|-----------------|-------------------|-------------------|| -----3s5---5-5-5-|-5-3-3---3---0-0-|-h2p0--------5-5-5-|-5-3-3---3---0-----|| ---2-------------|---4-4---4---0-0-|-----2---2---------|---4-4---4---0-2---|| -----------------|---5-5---5---0-0-|-----2---2---------|---5-5---5---0-2---|| -----------------|-----------------|-----0-------------|---------------0---|| -----------------|-----------------|-------------------|-------------------||








О сайтеАккордыХит-парадПоискУроки ФорумыИщу песню
ПрограммыСвежачок-сПодпискаСтатьи
Яндекс.Метрика