Табулатура Mike Oldfield | Summit Day  (2) гитара табулатуры уроки тексты песен Mike Oldfield текст lyrics песня аккорды песни ноты нота электрогитара струна  
   А Б В Г Д Е Ж З И К Л М Н О П Р С Т У Ф Х Ч Ш Ы Э Ю Я       Разные песни
1-9 A B C D E F G H I J K L M N O P Q R S T U V W Y Z      Все исполнители

    



группа Mike Oldfield, Табулатура песни Summit Day (2)

Группа: Mike Oldfield - другие аккорды (207),   об исполнителе (3 статей),   диски (26),   фотографии (18)
Табулатура песни: Summit Day (2)
Просмотров: 742
Прислал: squire (cailinsquires@yahoo.ie)




    
MIKE OLDFIELD
GUITARS - SUMMIT DAY
Transcribbed by Smaointe - oldfielete@yahoo.es
This is my own interpretation of the song, it possibly doesn't match with Oldfield's interpretation
but it sounds pretty good!
KEYS:
v = Small vibrato
s = Slide
h = Hammer On
*                                                           **                                                                ( Repeat * & ** )
----------0-------------                             -----------0--0--9--7vvv-----------
----------0-------------                             ---------------------------------------
----------2-------------                             ---------------------------------------
----------2-------------                             ---------------------------------------
----------0-------------                             ---------------------------------------
----------0-------------                             ---------------------------------------
-----------------0--0--10--10--9--9--0----------7--7--5--5--0---------0--0--5--5s7---------0--0--7--7s9--------
----------3--3-------------------------------3--3-------------------3--3-------------------3--3-------------------------
----------------------------------------------------------------------------------------------------------------------------
----------------------------------------------------------------------------------------------------------------------------
----------------------------------------------------------------------------------------------------------------------------
----------------------------------------------------------------------------------------------------------------------------
-----------------10--10--9--9--0---------7--7--5--5--0---------0--0--5--5h7---------0--0--7--7h9---------------
----------3--3-----------------------3--3-------------------3--3-------------------3--3---------------------------------
----------------------------------------------------------------------------------------------------------------------------
----------------------------------------------------------------------------------------------------------------------------
----------------------------------------------------------------------------------------------------------------------------
----------------------------------------------------------------------------------------------------------------------------
----------0--0--2--2--5--5--10--10--9--9--7--7--4--4--2------0--0--5--5--10--10--9--9--7--7--5--5--7--------
------------------------------------------------------------------3--------------------------------------------------------
----------------------------------------------------------------------------------------------------------------------------
----------------------------------------------------------------------------------------------------------------------------
----------------------------------------------------------------------------------------------------------------------------
----------------------------------------------------------------------------------------------------------------------------
----------0--0--2--2--5--5--10--10--9--9--7--7--4--4--2------0--0--5--5--10--10--9--9--7--7--5--5--7--------
------------------------------------------------------------------3--------------------------------------------------------
----------------------------------------------------------------------------------------------------------------------------
----------------------------------------------------------------------------------------------------------------------------
----------------------------------------------------------------------------------------------------------------------------
----------------------------------------------------------------------------------------------------------------------------
      
----------0-------------                 
----------0-------------                             
----------2-------------                             
----------2-------------                            
----------0-------------                             
----------0-------------                             
-----------------0--0--10--10--9--9--0----------7--7--5--5--0---------0--0--5--5s7---------0--0--7--7s9--------
----------3--3-------------------------------3--3-------------------3--3-------------------3--3-------------------------
----------------------------------------------------------------------------------------------------------------------------
----------------------------------------------------------------------------------------------------------------------------
----------------------------------------------------------------------------------------------------------------------------
----------------------------------------------------------------------------------------------------------------------------
-----------------10--10--9--9--0---------7--7--5--5--0---------0--0--5--5h7---------0--0--7--7h9---------------
----------3--3-----------------------3--3-------------------3--3-------------------3--3---------------------------------
----------------------------------------------------------------------------------------------------------------------------
----------------------------------------------------------------------------------------------------------------------------
----------------------------------------------------------------------------------------------------------------------------
----------------------------------------------------------------------------------------------------------------------------
----------0--0--2--2--5--5--10--10--9--9--7--7--4--4--2------0--0--5--5--10--10--9--9--7--7--5--5--7--------
------------------------------------------------------------------3--------------------------------------------------------

Продолжаем грести бабос на ботах в Telegram.
Только в этот раз есть вариант автоматизировать это дело, привлекая рефералов. Вы можете заработать если »

---------------------------------------------------------------------------------------------------------------------------- ---------------------------------------------------------------------------------------------------------------------------- ---------------------------------------------------------------------------------------------------------------------------- ---------------------------------------------------------------------------------------------------------------------------- ----------0--0--2--2--5--5--10--10--9--9--7--7--4--4--2------0--0--5--5--10--10--9--9--7--7--5--5--7vvv-- ------------------------------------------------------------------3-------------------------------------------------------- ---------------------------------------------------------------------------------------------------------------------------- ---------------------------------------------------------------------------------------------------------------------------- ---------------------------------------------------------------------------------------------------------------------------- ---------------------------------------------------------------------------------------------------------------------------- ----------0------------- ----------0------------- ----------2------------- ----------2------------- ----------0------------- ----------0------------- -----------------0--0--10--10--9--9--0----------7--7--5--5--0---------0--0--5--5s7---------0--0--7--7s9-------- ----------3--3-------------------------------3--3-------------------3--3-------------------3--3------------------------- ---------------------------------------------------------------------------------------------------------------------------- ---------------------------------------------------------------------------------------------------------------------------- ---------------------------------------------------------------------------------------------------------------------------- ---------------------------------------------------------------------------------------------------------------------------- -----------------10--10--9--9--0---------7--7--5--5--0---------0--0--5--5h7---------0--0--7--7h9--------------- ----------3--3-----------------------3--3-------------------3--3-------------------3--3--------------------------------- ---------------------------------------------------------------------------------------------------------------------------- ---------------------------------------------------------------------------------------------------------------------------- ---------------------------------------------------------------------------------------------------------------------------- ---------------------------------------------------------------------------------------------------------------------------- ----------0--0--2--2--5--5--10--10--9--9--7--7--4--4--2------0--0--5--5--10--10--9--9--7--7--5--5--7-------- ------------------------------------------------------------------3-------------------------------------------------------- ---------------------------------------------------------------------------------------------------------------------------- ---------------------------------------------------------------------------------------------------------------------------- ---------------------------------------------------------------------------------------------------------------------------- ---------------------------------------------------------------------------------------------------------------------------- ----------0--0--2--2--5--5--10--10--9--9--7--7--4--4--2------0--0--5--5--10--10--9--9--7--7--5--5--7vvv-- ------------------------------------------------------------------3-------------------------------------------------------- ---------------------------------------------------------------------------------------------------------------------------- ---------------------------------------------------------------------------------------------------------------------------- ---------------------------------------------------------------------------------------------------------------------------- ---------------------------------------------------------------------------------------------------------------------------- ------------------------------------------- ----------5s-------------0---------------- ------------------------------------------- ------------------------------------------- ------------------------------------------- ------------------------------------------- ----------0------------- ----------0------------- ----------2------------- ----------2------------- ----------0------------- ----------0------------- And this is how I think it goes. If there are any complaints or corrections write me to: oldfielete@yahoo.es Please, notice me if with this i've helped you to play fairly well this song. Smaointe. 16/01/2002








О сайтеАккордыХит-парадПоискУроки ФорумыИщу песню
ПрограммыСвежачок-сПодпискаСтатьи
Яндекс.Метрика