Табулатура Mike Oldfield | Muse  (3) гитара табулатуры уроки тексты песен Mike Oldfield текст lyrics песня аккорды песни ноты нота электрогитара струна  
   А Б В Г Д Е Ж З И К Л М Н О П Р С Т У Ф Х Ч Ш Ы Э Ю Я       Разные песни
1-9 A B C D E F G H I J K L M N O P Q R S T U V W Y Z      Все исполнители

    



группа Mike Oldfield, Табулатура песни Muse (3)

Группа: Mike Oldfield - другие аккорды (207),   об исполнителе (3 статей),   диски (26),   фотографии (18)
Табулатура песни: Muse (3)
Просмотров: 971
Прислал: squire (cailinsquires@yahoo.ie)




    
Muse-Guitars Mike Oldfield
Lorenzo Montero (lmonteroh@terra.es)
Guitarra 1
Lead Guitar
                                                                               
E||------------------|------------------|------------------|------------------|
B||------------------|------------------|------------------|------------------|
G||------------------|------------------|------------------|------------------|
D||------------------|------------------|------------------|------------------|
A||------------------|------------------|------------------|------------------|
E||------------------|------------------|------------------|------------------|
                                                                   
--------------7--5--|--7-------------------|--5----------------0--|
--------------------|-------5---------7-8--|----------------3-----|
--------------------|----------------------|-------5--------------|
--------------------|----------------------|----------------------|
--------------------|----------------------|----------------------|
--------------------|----------------------|----------------------|
                                                                          
--------5---5---7------|-----0--0--------7--5--7-|-----------------2--3--|
--3--------------------|-------------------------|------5-------5--------|
-----------------------|--7----------------------|-----------------------|
-----------------------|-------------------------|-----------------------|
-----------------------|-------------------------|-----------------------|
-----------------------|-------------------------|-----------------------|
                                                                     
--5-------------0--2--|--0------7--5-3--2-----|--0------------2--3--|
-------3--------------|-----------------------|---------------------|
----------------------|-----------------------|---------------------|
----------------------|-----------------------|---------------------|
----------------------|-----------------------|---------------------|
----------------------|-----------------------|---------------------|
                                                                      
--5-------------0-2--3-|-----------------0----|--------5--5-----5----|
-------3---------------|------1--------3----3-|----------------------|
-----------------------|----------------------|----------------------|
-----------------------|----------------------|----------------------|
-----------------------|----------------------|----------------------|
-----------------------|----------------------|----------------------|
                                                                      
-----0----------7-----|--7----0------0--2-3--5-|---------------0--2--|
--3-------------------|------------------------|-------3-------------|
----------------------|------------------------|---------------------|
----------------------|------------------------|---------------------|
----------------------|------------------------|---------------------|
----------------------|------------------------|---------------------|
                                                                           
--0------7--5-3--2-----|--2---0---------7--5--|--7----------------2--3--5-|
-----------------------|----------------------|--------5-----5--5---------|
-----------------------|----------------------|---------------------------|
-----------------------|----------------------|---------------------------|
-----------------------|----------------------|---------------------------|
-----------------------|----------------------|---------------------------|
                                                                     
------------------0---|--------5-5-----5------|---0----------7-5--7-|
---------------3----3-|---------------------3-|---------------------|
------5---------------|-----------------------|---------------------|
----------------------|-----------------------|---------------------|
----------------------|-----------------------|---------------------|
----------------------|-----------------------|---------------------|
                                                                       
---------------------5-|-----------------------|--------7--5--3--2----|
-------5-------7--8----|----------------5--7-5-|----------------------|
-----------------------|------7----------------|----------------------|
-----------------------|-----------------------|----------------------|
-----------------------|-----------------------|----------------------|
-----------------------|-----------------------|----------------------|
                                                                       
---2-----------2--3--5-|----------------0-2--|--3----------------0----|
-----------------------|------3------3-------|--------1--------3----3-|
-----------------------|---------------------|------------------------|
-----------------------|---------------------|------------------------|
-----------------------|---------------------|------------------------|
-----------------------|---------------------|------------------------|
                                                                         
--------5--5-----5---|-----0--------5-----5--|--7----0-----0--0-2--3--5-|
---------------------|--3--------------------|--------------------------|
---------------------|-----------------------|--------------------------|
---------------------|-----------------------|--------------------------|
---------------------|-----------------------|--------------------------|
---------------------|-----------------------|--------------------------|
                                                                     
---------------0-2--0-|--------7--5-3--2-----|--2----0--------0--2--|
------3---------------|----------------------|----------------------|
----------------------|----------------------|----------------------|
----------------------|----------------------|----------------------|
----------------------|----------------------|----------------------|
----------------------|----------------------|----------------------|
                                                                         
--3----0-----0-0--2-3---|--5-------------0-2--0-|--------2-3-----3--7-5-|
------------------------|-------3---------------|-----------------------|
------------------------|-----------------------|-----------------------|
------------------------|-----------------------|-----------------------|
------------------------|-----------------------|-----------------------|
------------------------|-----------------------|-----------------------|
                                                                        
-----------------2--3-|------0-----0--0--2-3--5-|---------------0-2--0-|
--------------5-------|-------------------------|------3---------------|
----------------------|-------------------------|----------------------|
----------------------|-------------------------|----------------------|
----------------------|-------------------------|----------------------|
----------------------|-------------------------|----------------------|
                                                                         
--------5--5--3-2-----|--0------------0--2--3-|------0-----0--0-2--3--5-|
----------------------|-----------------------|-------------------------|
----------------------|-----------------------|-------------------------|
----------------------|-----------------------|-------------------------|
----------------------|-----------------------|-------------------------|
----------------------|-----------------------|-------------------------|
                                                                      
----------------0--2-0-|--------2-3----5-----5-|-----------------2-3-|
------3----------------|-----------------------|--------------5------|
-----------------------|-----------------------|---------------------|
-----------------------|-----------------------|---------------------|

Продолжаем грести бабос на ботах в Telegram.
Только в этот раз есть вариант автоматизировать это дело, привлекая рефералов. Вы можете заработать если »

-----------------------|-----------------------|---------------------| -----------------------|-----------------------|---------------------| ------0-----0--0--2-3--3-|---------------0--2-0-|--------7--5--3-2-----| -------------------------|------3---------------|----------------------| -------------------------|----------------------|----------------------| -------------------------|----------------------|----------------------| -------------------------|----------------------|----------------------| -------------------------|----------------------|----------------------| --2----0-----0----7--5--|--7---------------2-3--|--5-----------------0----| ------------------------|-------5----5--5-------|-----------------3-----3-| ------------------------|-----------------------|--------5----------------| ------------------------|-----------------------|-------------------------| ------------------------|-----------------------|-------------------------| ------------------------|-----------------------|-------------------------| --------5--5-----5------|---0--7----7--5--3--5---|--7-----0----0--0--2--3--| ----------------------3-|------------------------|-------------------------| ------------------------|------------------------|-------------------------| ------------------------|------------------------|-------------------------| ------------------------|------------------------|-------------------------| ------------------------|------------------------|-------------------------| --5---------------0---2-|---0-------5---5---3---2-|-------2-----0-------| --------3---------------|-------------------------|---------------------| ------------------------|-------------------------|---------------------| ------------------------|-------------------------|---------------------| ------------------------|-------------------------|---------------------| ------------------------|-------------------------|---------------------| -------0------------|------------------|| --------------------|------------------|| --------------------|------------------|| --------------------|------------------|| --------------------|------------------|| --------------------|------------------|| Guitarra 2 Guitar Ar E||------------------|--------------0----------|---0----------0----------| B||------------------|--------0-----------0----|--------0----------0-----| G||------------------|-----0-----0-----------0-|-----------0-----------0-| D||------------------|--2----------------------|-------------------------| A||------------------|-------------------------|-------------------------| E||------------------|-------------------------|-------------------------| ------------0-------------|------------0-------------|--------------0----------| ---------0----------------|---------0-------------0--|--------0----------0-----| ------0-----------------0-|------0-------------0-----|-----0-----0----------0--| ---2-----------------2----|---2-----------2----------|--2----------------------| ------------------2-------|--------------------------|-------------------------| ---------------0----------|--------------------------|-------------------------| --------------0----------|-------------------------|--------------------------| --------1----------1-----|--------------3----------|--------0--1--0-----------| -----0-----0----------0--|--------2-----------2----|-----0-----------2--0--2--| -------------------------|--0--4-----4-----4-------|--------------------------| --3----------------------|-------------------------|--3-----------------------| -------------------------|-------------------------|--------------------------| --------------------------|--------------------------|------------------------| --------------0--------0--|--------0-----0--------0--|------------------------| --------0-----------0-----|--------------------------|----------0----------2--| -----2-----2-----2--------|-----4-----4--------4-----|-------2-------0--4-----| --------------------------|--2--------------2--------|----3-------------------| --0-----------------------|--------------------------|------------------------| -----------------------|--------------------------|--------------------------| -----------0-----------|--------0-----3-----------|--------------1-----------| --------0--------------|--------------------4-----|--------0-----------0-----| -----2-----------------|-----4-----4-----4-----4--|-----2-----2-----2-----2--| -----------------------|--2-----------------------|--3-----------------------| --0-----------0--------|--------------------------|--------------------------| --------------------------|--------------------------| --------------3-----------|--------0--1--0-----------| --------2-----------2-----|-----0-----------2--0--2--| --0--4-----4-----4-----4--|--------------------------| --------------------------|--3-----------------------| --------------------------|--------------------------| --------------------------|--------------------------| --------------1-----------|--------------0-----------| --------0-----------0-----|--------------------------| -----2-----2-----2-----2--|-----0--4--0-----0--4--0--| --3-----------------------|--2-----------------------| --------------------------|--------------------------| --------------------------|--------------------------|--------------0----------| -----------1--------------|--------------------------|--------0----------0-----| --------0-----------2-----|-----------0--------0-----|-----0-----0----------0--| -----2--------0--4-----4--|--------2-----2--------2--|--2----------------------| --3-----------------------|-----2-----------2--------|-------------------------| --------------------------|--0-----------------------|--0----------------------| --------------0----------|-------------------------|--------------------------| --------1----------1-----|--------------3----------|--------0--1--0-----------| -----0-----0----------0--|--------2-----------2----|-----0-----------2--0--2--| -------------------------|--0--4-----4-----4-------|--------------------------| --3----------------------|-------------------------|--3-----------------------| -------------------------|-------------------------|--------------------------| --------------------------|--------------------------|------------------------| --------------0--------0--|--------0-----0--------0--|------------------------| --------0-----------0-----|--------------------------|----------0----------2--| -----2-----2-----2--------|-----4-----4--------4-----|-------2-------0--4-----| --------------------------|--2--------------2--------|----3-------------------| --0-----------------------|--------------------------|------------------------| -----------------------|------------------








О сайтеАккордыХит-парадПоискУроки ФорумыИщу песню
ПрограммыСвежачок-сПодпискаСтатьи
Яндекс.Метрика