Табулатура Mike Oldfield | The Watchful Eye гитара табулатуры уроки тексты песен Mike Oldfield текст lyrics песня аккорды песни ноты нота электрогитара струна  
   А Б В Г Д Е Ж З И К Л М Н О П Р С Т У Ф Х Ч Ш Ы Э Ю Я       Разные песни
1-9 A B C D E F G H I J K L M N O P Q R S T U V W Y Z      Все исполнители

    



группа Mike Oldfield, Табулатура песни The Watchful Eye

Группа: Mike Oldfield - другие аккорды (207),   об исполнителе (3 статей),   диски (26),   фотографии (18)
Табулатура песни: The Watchful Eye
Просмотров: 840
Прислал: squire (cailinsquires@yahoo.ie)




    
Tubular Bells IIIMike Oldfield
=================----------================-------------=============
   The Watchful Eye
=========------------------================---------------===========
Tablature  David Bruce
      david@bruce1999.freeserve.co.uk
=========-----------------------------===============================
Here's the guitar part from near the end
1:33
e-|---------------------------------
B-|------5--------------------------
G-|---------5-----------------------
D-|--5---------3-----5vvvvv---------
A-|---------------5-----------------
E-|---------------------------------
e-|---------------------------------
B-|------5--------------------------
G-|---------5-----------------------

Продолжаем грести бабос на ботах в Telegram.
Только в этот раз есть вариант автоматизировать это дело, привлекая рефералов. Вы можете заработать если »

D-|--5---------3-------------------- A-|---------------5--7-------------- E-|--------------------------------- e-|--------------------------------- B-|------5-------------------------- G-|---------5----------------------- D-|--5---------3-----5vvvvv--------- A-|---------------5----------------- E-|--------------------------------- e-|--------------------------------- B-|--------------------------------- G-|--------------------------------- D-|--2/5--5------------------------- A-|----------7--3--5vvv--3vvv------- E-|--------------------------------- DB 24 Sept 99








О сайтеАккордыХит-парадПоискУроки ФорумыИщу песню
ПрограммыСвежачок-сПодпискаСтатьи
Яндекс.Метрика