Табулатура Mike Oldfield | The Source Of Secrets  (2) гитара табулатуры уроки тексты песен Mike Oldfield текст lyrics песня аккорды песни ноты нота электрогитара струна  
   А Б В Г Д Е Ж З И К Л М Н О П Р С Т У Ф Х Ч Ш Ы Э Ю Я       Разные песни
1-9 A B C D E F G H I J K L M N O P Q R S T U V W Y Z      Все исполнители

    



группа Mike Oldfield, Табулатура песни The Source Of Secrets (2)

Группа: Mike Oldfield - другие аккорды (207),   об исполнителе (3 статей),   диски (26),   фотографии (18)
Табулатура песни: The Source Of Secrets (2)
Просмотров: 849
Прислал: squire (cailinsquires@yahoo.ie)




    
Tubular Bells IIIMike Oldfield
=================--------=====================----------=============
 The Source Of Secrets
=========----------------=====================------------===========
Tablature  David Bruce
      david@bruce1999.freeserve.co.uk
=========-----------------------------===============================
This is my first TAB, so some (or all) of it might be wrong. I
haven't tabbed a rhythm. If you listen to the song, you'll know what
to play.
0:41
electric piano tabbed for guitar
e-|---------------------------------
B-|--1---3---0-----1---3---0-1------
G-|------------------------------2--
D-|----2---2---------2---2-----2----
A-|---------------------------------
E-|---------------------------------
e-|---------------------------------
B-|--1---3---0-----0---1-----0------
G-|------------------------2-----0--
D-|----2---2---------2---2-----2----
A-|---------------------------------
E-|---------------------------------
Repeat this as often as you want.
In the background:
e-|-------------------------------------------------------------------
B-|----1-0-----1-0------1-0-----1-0------1-0-----1-0----1-1-1--0-0-0--
G-|--2----0-2-2----0--2----0-2-2----0--2----0-2-2----0----------------
D-|-----------------------------------------------------2-2-2--2-2-2--
A-|-------------------------------------------------------------------
E-|-------------------------------------------------------------------
2:58
e-|-------------------5-------------------------
B-|----------------5-----5--------5----------5--
G-|-----5--77p5p7-----------7--5------7-5-------
D-|--7------------------------------------7-----
A-|---------------------------------------------
E-|---------------------------------------------
e-|-------------------5-------------------------
B-|----------------5-----5--------5-------------
G-|-----5--77p5p7-----------7--5------7-5-------
D-|--7------------------------------------7--7--
A-|---------------------------------------------

Продолжаем грести бабос на ботах в Telegram.
Только в этот раз есть вариант автоматизировать это дело, привлекая рефералов. Вы можете заработать если »

E-|--------------------------------------------- Repeated again at 3:46, 4:02 4:59 e-|--------------------------------- B-|--1--3--0---------1-----0-------- G-|---------------------2-----0--0-- D-|--------------------------------- A-|--------------------------------- E-|--------------------------------- e-|------------------------------ B-|--1--3--0---------1-----1--0-- G-|---------------------2-------- D-|------------------------------ A-|------------------------------ E-|------------------------------ e-|--------------------------------- B-|--1--3--0---------1-----0-------- G-|---------------------2-----0--0-- D-|--------------------------------- A-|--------------------------------- E-|--------------------------------- (screeching sound) e-|---------------333 15-15-15-15-15-15-12-12-12-10-10-10-- B-|--1--3--3333-------------------------------------------- G-|-------------------------------------------------------- D-|-------------------------------------------------------- A-|-------------------------------------------------------- E-|-------------------------------------------------------- e-|--------------------------------- B-|--1--3--0---------1-----0-------- G-|---------------------2-----0--0-- D-|--------------------------------- A-|--------------------------------- E-|--------------------------------- e-|----------- B-|--1--3--0-- G-|----------- D-|----------- A-|----------- E-|----------- DB 16 Aug 99 rev 24 Sept 99








О сайтеАккордыХит-парадПоискУроки ФорумыИщу песню
ПрограммыСвежачок-сПодпискаСтатьи
Яндекс.Метрика