Табулатура Mike Oldfield | Dark Island гитара табулатуры уроки тексты песен Mike Oldfield текст lyrics песня аккорды песни ноты нота электрогитара струна  
   А Б В Г Д Е Ж З И К Л М Н О П Р С Т У Ф Х Ч Ш Ы Э Ю Я       Разные песни
1-9 A B C D E F G H I J K L M N O P Q R S T U V W Y Z      Все исполнители

    



группа Mike Oldfield, Табулатура песни Dark Island

Группа: Mike Oldfield - другие аккорды (207),   об исполнителе (3 статей),   диски (26),   фотографии (18)
Табулатура песни: Dark Island
Просмотров: 898
Прислал: squire (cailinsquires@yahoo.ie)




    
***** Voyager - Dark Island *****
by Kamil Frankiewcz, kamillo@kki.net.pl
|-7---9-7------7--------------------------------12--------12---------------
|---------10-----107----------12-14---12----14--------14----14-15(14)-12-
|---------------------9-7-9/14------------14-------------------------------
|---------------------------------------------------14---------------------
|--------------------------------------------------------------------------
|--------------------------------------------------------------------------
|---7-----9-7------7-----------------------12-------------------------------
|-7-----------10-----107----------12-14------14h15p14-12---14-12---10---10-
|-------------------------9-7-9/14------------------------------------------
|---------------------------------------------------------------------------
|---------------------------------------------------------------------------
|---------------------------------------------------------------------------
|-7---9-7------7--------------------------------12----------12--------------
|---------10-----107----------12-14---12----14-------14-------14-15(14)-12
|---------------------9-7/9/14------------14--------------------------------
|--------------------------------------------------14-----------------------
|---------------------------------------------------------------------------
|---------------------------------------------------------------------------
|---7-----9-7------7-----------------------12-------------------------------
|-7-----------10-----107----------12-14------14/1514---12---14-12-10---10-
|-------------------------9-7-9/14------------------------------------------
|---------------------------------------------------------------------------
|---------------------------------------------------------------------------
|---------------------------------------------------------------------------
|-12---12-12-9---7----------------------------------12-------12-------------
|------------------107----------12-14---12----14---------14----14h15p14-12-
|-----------------------9-7/9/14------------14------------------------------
|------------------------------------------------------14-------------------
|---------------------------------------------------------------------------
|---------------------------------------------------------------------------
|---7-----9-7------7-----------------------12-------------------------------
|-7-----------10-----107----------12-14------14h15p14-12---14-12-10---10---
|-------------------------9-7-9/14------------------------------------------
|---------------------------------------------------------------------------
|---------------------------------------------------------------------------
|---------------------------------------------------------------------------
|-7---9-7------7----------------------------------12---------12-------------
|---------10-----107----------12-14---12------14---------14----14-1514-12-
|---------------------9-7-9/14------------14--------------------------------
|------------------------------------------------------14-------------------
|---------------------------------------------------------------------------
|---------------------------------------------------------------------------
|---7----9-7------7----------------------12---------------------------------
|-7----------10-----107----------12-14-----14h15p14-12---14-12----10-12-10-
|------------------------9-7-9/14-------------------------------11----------
|---------------------------------------------------------------------------
|---------------------------------------------------------------------------
|---------------------------------------------------------------------------
|-12---12---9-----7---------------------------------12--------12------------
|-------------------107-------------12-14-12----14--------14----14-1514-12
|---------9------------7-9-7-9----14----------14----------------------------
|----------------------------11-------------------------14------------------
|---------------------------------------------------------------------------
|---------------------------------------------------------------------------
|------7--9-7-----7---------------------12----------------------------------
|(5)/7--------10----107----------12-14----14h15p14-12-14-12--------10-12-10
|------------------------9-7-9-14----------------------------(9)/11---------
|---------------------------------------------------------------------------
|---------------------------------------------------------------------------
|---------------------------------------------------------------------------
...and here goes really FAST part (chords in background are: fis,D,E)
I guess it's best to play it on acoustic guitar, cause I've got problems
with right speed on my classical guitar (too far for me)....
-----------------------|-------------14-16-17-14-16----14-----------
-----------------------|----------14----------------17----14--------
--(14)---13/1413---11-|-11-13-14----------------------------14-13--
-----------------------|--------------------------------------------
-----------------------|--------------------------------------------
-----------------------|--------------------------------------------
------------------------|-------------14-16-17-14-16----14----------
---------12-14----------|----------14----------------17----14-------
11-13-14----------------|-11-13-14----------------------------14-13-
---------------11----11-|-------------------------------------------
------------------14----|-------------------------------------------
------------------------|-------------------------------------------
------------------------|-------------14-16-17-14-16----14----------
---12-------------------|----------14----------------17----14-------

Продолжаем грести бабос на ботах в Telegram.
Только в этот раз есть вариант автоматизировать это дело, привлекая рефералов. Вы можете заработать если »

14----13-14-11-------11-|-11-13-14----------------------------14-13- ---------------11-14----|------------------------------------------- ------------------------|------------------------------------------- ------------------------|------------------------------------------- ---------------|-14-16-17-14-16----14----|----------12-------------- ---------12-14-|----------------17----14-|----12-14----14-12-------- 11-13-14-------|-------------------------|-14----------------14-11-- ---------------|-------------------------|-------------------------- ---------------|-------------------------|-------------------------- ---------------|-------------------------|-------------------------- ---------------------|----------|-------------14-16-17-14-16----14---------- ---------------------|----------|----------14----------------17----14------- 11-13-14-11-13----11-|-------11-|-11-13-14----------------------------14-13- ---------------14----|-11-14----|------------------------------------------- ---------------------|----------|------------------------------------------- ---------------------|----------|------------------------------------------- ------------------------|-------------14-16-17-14-16----14---------- ---------12-14----------|----------14----------------17----14------- 11-13-14-------11----11-|-11-13-14----------------------------14-13- ------------------14----|------------------------------------------- ------------------------|------------------------------------------- ------------------------|------------------------------------------- ------------------------|--------------14-16-17-14-16----14---------- ---12-------------------|-----------14----------------17----14------- 14----13-14-11-------11-|--11-13-14----------------------------14-13- ---------------11-14----|-------------------------------------------- ------------------------|-------------------------------------------- ------------------------|-------------------------------------------- ---------------|-14-16-17-14-16----14----|----------12------------- ---------12-14-|----------------17----14-|----12-14----14-12------- 11-13-14-------|-------------------------|-14----------------14-11- ---------------|-------------------------|------------------------- ---------------|-------------------------|------------------------- ---------------|-------------------------|------------------------- ---------------------|----------|-------------14-16-17-14-16----14---------- ---------------------|----------|----------14----------------17----14------- 11-13-14-11-13----11-|-------11-|-11-13-14----------------------------14-13- ---------------14----|-11-14----|------------------------------------------- ---------------------|----------|------------------------------------------- ---------------------|----------|------------------------------------------- ------------------------|-------------14-16-17-14-16----14---------- ---------12-14----------|----------14----------------17----14------- 11-13-14-------11----11-|-11-13-14----------------------------14-13- ------------------14----|------------------------------------------- ------------------------|------------------------------------------- ------------------------|------------------------------------------- ------------------------|-------------14-16-17-14-16----14---------- ---12-------------------|----------14----------------17----14------- 14----13-14-11-------11-|-11-13-14----------------------------14-13- ---------------11-14----|------------------------------------------- ------------------------|------------------------------------------- ------------------------|------------------------------------------- ---------------|-14-16-17-14-16----14----|----------12------------- ---------12-14-|----------------17----14-|----12-14----14-12------- 11-13-14-------|-------------------------|-14----------------14-11- ---------------|-------------------------|------------------------- ---------------|-------------------------|------------------------- ---------------|-------------------------|------------------------- ---------------------|----------------------|--------------|-------------- ---------------------|----------------------|--------------|-------------- 11-13-14-11-13----11-|-11-13-14-11-13----11-|----9-11-9-11-|----9-11-9-11- ---------------14----|----------------14----|-11-----------|-11----------- ---------------------|----------------------|--------------|-------------- ---------------------|----------------------|--------------|-------------- -------------|-----------|--------------|----------------|---------------- -------------|------10-9-|------10-9-10-|-------14-12-14-|-------14-12-14- ---9-11-9-11-|----9-11-9-|----9-11-9-11-|-------11-9--11-|-------11-9--11- 11-----------|-11--------|-11-----------|-11-14----------|-11-14---------- -------------|-----------|--------------|----------------|---------------- -------------|-----------|--------------|----------------|---------------- -------------|--------------| -------------|--------------| ---9-11-9-11-|----9-11-9-11-| 11-----------|-11-----------| -------------|--------------| -------------|--------------| and now once again goes slow part and gently fades away...








О сайтеАккордыХит-парадПоискУроки ФорумыИщу песню
ПрограммыСвежачок-сПодпискаСтатьи
Яндекс.Метрика