Табулатура Mike Oldfield | The Bell  (4) гитара табулатуры уроки тексты песен Mike Oldfield текст lyrics песня аккорды песни ноты нота электрогитара струна  
   А Б В Г Д Е Ж З И К Л М Н О П Р С Т У Ф Х Ч Ш Ы Э Ю Я       Разные песни
1-9 A B C D E F G H I J K L M N O P Q R S T U V W Y Z      Все исполнители

    



группа Mike Oldfield, Табулатура песни The Bell (4)

Группа: Mike Oldfield - другие аккорды (207),   об исполнителе (3 статей),   диски (26),   фотографии (18)
Табулатура песни: The Bell (4)
Просмотров: 1078
Прислал: squire (cailinsquires@yahoo.ie)




    
***** Tubular Bells II - The Bell (live) *****
by Calum F. Benson, calumb@logcam.co.uk
Freely
|----------------------------|
|-0^1^0----------------------|
|-------2-------0-----0--2---|
|------------------4---------|
|----------------------------|
|----------------------------|
                                   CII-------------
A Tempo                                        *Slide
|--------3---2---|2---0-----------|----------------|----------------|
|0-----0---0---0-|----1---1-------|----------------|0-------0-----0-|
|----0-----------|--2---2-----2---|2---4---4---45--|------0-----0---|
|--2-------------|----------2---0-|--4---4---4---4-|----2-----2-----|
|----------------|0---------------|2---------------|--2-------------|
|0---------------|----------------|----------------|0---------------|
 ^   ^   ^   ^    ^   ^   ^   ^    ^   ^   ^   ^    ^   ^   ^   ^
                                                    CII----       *Legado
|0-----0-5---3---{2-----2-----0-2-{3---0---0-------|--------2-------|
|----1-----------{0-0-----0-------{0-----------0---{5---------0---01|
|--2-------5---0-{2---2-----2-----{0-------------0-{4---2^4-----2---|
|----------------{----------------{--2---2---2-----{--4-------------|
|0---------------{2---------------{3---------------{2---------------|
|----------------|----------------|----------------|----------------|
 ^   ^   ^   ^    ^   ^   ^   ^    ^   ^   ^   ^    ^   ^   ^   ^
|--------3---2---|2---0-----------|----------------|----------------|
|0-----0---0---0-|--------1-------|----------------|0-------0-----0-|
|----0-----------|--2---------2---|----4---4---5---|------0-----0---|
|--2-------------|------2---2---0-|--4---4---4---4-|----2-----2-----|
|----------------|0---------------|2---------------|--2-------------|
|0---------------|----------------|----------------|0---------------|
 ^   ^   ^   ^    ^   ^   ^   ^    ^   ^   ^   ^    ^   ^   ^   ^
                                                    * 1/2CII
                                                           *1/2CIV
|0-----0-5---3---{2-----------0-2-{3---0-----------|----------------|
|----1-----------{0-0-------------{0---------------{5-------7-------|
|--2-------5---0-{2---2-----0-----{0---------------{4---2-4---4---4-|
|----------------{------1---------{2-2---2---2---0-{4-4---------7---|
|0---------------{2-------2-------{3-------3---3---{2---------------|
|----------------|----------------|----------------|----------------|
 ^   ^   ^   ^    ^   ^   ^   ^    ^   ^   ^   ^    ^   ^   ^   ^
 1/2CV--          CV               CII     1/2VII
|----------------|----------------|------2=7-------{4-------4-------|
|----5--{10--8---{7-----7-----5-7-{3-----------10--{5-5-------5-----|
|5-----0{-9------{7-7-----7-------{4---4-----------{6---6-------6---|
|--7----{1010--10{7---7-----7-----{--4-------9---0-{7-----7-------7-|
|0---------------{5---------------{2---------------|----------------|
|----------------|----------------|----------------|----------------|
 ^   ^   ^   ^    ^   ^   ^   ^    ^   ^   ^   ^    ^   ^   ^   ^
                                                    Damp ---> No Damp
                                                    d u d u d u d u
|3-------3-------|----------------|----------------|----------------|
|--4-------4-----|----------------|----------------|----------------|
|----5-------5---|------------7-7-|------------7-7-|7-7-7-7-7-7-7-7-|
|------6-------6-|--------6-6-----|--------6-6-----|6-6-6-6-6-6-6-6-|
|----------------|----5-5---------|----5-5---------|5-5-5-5-5-5-5-5-|
|----------------|4-4-------------|4-4-------------|4-4-4-4-4-4-4-4-|
 ^   ^   ^   ^    ^   ^   ^   ^    ^   ^   ^   ^    ^   ^   ^   ^
   d   d   d   d    d   d   d   d    d   d   d   d    d   d   d   d
|----------------|----------------|----------------|----------------|
|----------------|----------------|----------------|----------------|
(5)-(4)-(5)-(0)--(5)-(4)-(5)-(0)--(5)-(4)-(5)-(0)--(5)-(4)-(5)-(0)--|
|7-x-5-x-7-x-2-x-|7-x-5-x-7-x-2-x-|7-x-5-x-7-x-2-x-|7-x-5-x-7-x-2-x-|
|7-x-5-x-7-x-2-x-|7-x-5-x-7-x-2-x-|7-x-5-x-7-x-2-x-|7-x-5-x-7-x-2-x-|
|5-x-3-x-5-x-0-x-|5-x-3-x-5-x-0-x-|5-x-3-x-5-x-0-x-|5-x-3-x-5-x-0-x-
 ^   ^   ^   ^    ^   ^   ^   ^    ^   ^   ^   ^    ^   ^   ^   ^
   d   d   d   d    d   d   d   d    d   d   d   d    d   d   d   d
|----------------|----------------|----------------|----------------|
|----------------|----------------|----------------|----------------|
(7)-(6)-(7)-(2)--(7)-(6)-(7)-(2)--(7)-(6)-(7)-(2)--(7)-(6)-(7)-(2)--|
|9-x-7-x-9-x-4-x-|9-x-7-x-9-x-4-x-|9-x-7-x-9-x-4-x-|9-x-7-x-9-x-4-x-|
|9-x-7-x-9-x-4-x-|9-x-7-x-9-x-4-x-|9-x-7-x-9-x-4-x-|9-x-7-x-9-x-4-x-|
|7-x-5-x-7-x-2-x-|7-x-5-x-7-x-2-x-|7-x-5-x-7-x-2-x-|7-x-5-x-7-x-2-x-|
 ^   ^   ^   ^    ^   ^   ^   ^    ^   ^   ^   ^    ^   ^   ^   ^
|----------------|
|----------------|
|1---------------|
|2---------------|
|2---------------|
|0---------------|
 ^   ^   ^   ^
Now, the rhythm guitar part which comes in here and plays through to the
end of the tubular bells' part goes something like this:

Продолжаем грести бабос на ботах в Telegram.
Только в этот раз есть вариант автоматизировать это дело, привлекая рефералов. Вы можете заработать если »

CVII ==CIX |--------------------------------------------------| |--------------------------------------------------| |--------------------------------------------------| x2 |------------9-----9==11-9-------------------------| |7--7--7--7-----x-----------12-9-^11-12-11---------| |------------------------------------------9-=7----| ^ ^ ^ ^ CVI CVII ==CIX |--------------------------------------------------| |--------------------------------------------------| |--------------------------------------------------| |------------9-----9==11-9-------------------------| |6--6--6--6-----x-----------12-9-^11-12-11---------| |------------------------------------------9-=7----| ^ ^ ^ ^ CVII ==CIX |--------------------------------------------------| |--------------------------------------------------| |--------------------------------------------------| x2 |------------9-----9==11-9-------------------------| |7--7--7--7-----x-----------12-9-^11-12-11---------| |------------------------------------------9-=7----| ^ ^ ^ ^ CIX ==CXIII CIX |--------------------------------------------------| |--------------------------------------------------| |--------------------------------------------------| |------------11----11=13-11------------------------| |---------------------------13-9-^11-12-11---------| |9--9--9--9-----x--------------------------9-=7----| ^ ^ ^ ^ CIX |--------------------------------------------------| |--------------------------------------------------| |--------------------------------------------------| |------------9-----9-^11-9-------------------------| |9--9--9--9-----x-----------12-9-^11-12-11---------| |------------------------------------------9-=7----| ^ ^ ^ ^ CVII ==CIX * Spot the difference! |--------------------------------------------------| |--------------------------------------------------| |--------------------------------------------------| |------------9-----9==11-9-------------------------| |7--7--7--7-----x-----------12-9-^11-12-11-9--12---| |--------------------------------------------------| ^ ^ ^ ^ CVII ==CIX |--------------------------------------------------| |--------------------------------------------------| |--------------------------------------------------| |------------9-----9==11-9-------------------------| |---------------------------12-9-^11-12-11---------| |7--7--7--7-----x--------------------------9-=7----| ^ ^ ^ ^ ... and so on, until the last bell fades away into the Edinburgh night.... Now, moving swiftly past the flamenco part :), the whole shebang ends up like this (capo on fret 2): 1st fing. 4th fing. |4---2---0-2---0-|--2-----0-----0-|4---2---0-2---0-|-------0----0---| |--0---0-----4---|------4-----0---|--0---0-----4---|----0-----0---0-| |----------------|----4-----2-----|----------------|--2-----2-------| |----2-----------|----------------|----------------|----------------| |----------------|0---------------|2---------------|0---------------| |0---------------|----------------|----------------|----------------| ^ ^ ^ ^ ^ ^ ^ ^ ^ ^ ^ ^ ^ ^ ^ ^ |4---2---0-2---0-|--2-----0-----0-|4---2---0-2---0-{0---------------| |--0---0-----4---|------4-----0---|--0---0-----4---{0---------------| |----------------|----4-----2-----|----------------{2---------------| |----------------|----------------|----------------{2---------------| |----------------|0---------------|2---------------{0---------------| |0---------------|----------------|----------------|----------------| ^ ^ ^ ^ ^ ^ ^ ^ ^ ^ ^ ^ ^ ^ ^ ^ Rit./Freely |--------0-----0-|------0--{0-------| |------0-----0---|----0----{0-------| |----2-----2-----|--2------{1-------| |2-2-------------|2--------{2-------| |----------------|---------{2-------| |----------------|---------{0-------|








О сайтеАккордыХит-парадПоискУроки ФорумыИщу песню
ПрограммыСвежачок-сПодпискаСтатьи
Яндекс.Метрика