Табулатура Mike Oldfield | Red Dawn  (2) гитара табулатуры уроки тексты песен Mike Oldfield текст lyrics песня аккорды песни ноты нота электрогитара струна  
   А Б В Г Д Е Ж З И К Л М Н О П Р С Т У Ф Х Ч Ш Ы Э Ю Я       Разные песни
1-9 A B C D E F G H I J K L M N O P Q R S T U V W Y Z      Все исполнители

    



группа Mike Oldfield, Табулатура песни Red Dawn (2)

Группа: Mike Oldfield - другие аккорды (207),   об исполнителе (3 статей),   диски (26),   фотографии (18)
Табулатура песни: Red Dawn (2)
Просмотров: 1134
Прислал: squire (cailinsquires@yahoo.ie)




    
Song: Red Dawn.
Album: Tubular Bells II.
Author: Mike Oldfield.
This is a nice Mike Oldfield song, that I've tried to tab, using
the TBII songbook.  This hasn't to be the way of the author playing,
it just my interpretation, so feel free to make any change.
If you see any mistakes, send me an e-mail
Mois?s Ferrer Serra
infografista@yahoo.es
Tab notation
2h5 --> play 2 and hammer on 5 (only first note is picked)
5p2 --> play 5 and pull off 2 (only first note is picked)
3x --> play 3 with palm muted (hold right palm just over the bridge)
Acoustic guitar (0:22)
E|-----|----------------|---------3---2---|-2---0-------------|
B|-----|----------------|-0---------0---0-|---------1---------|
G|---0-|-0--------------|-------0---------|-------------2-----|
D|-----|--4-2-0---------|-----2-----------|---2---2---2---0---|
A|-----|--------3-2-0-3-|---2-------------|-0-----------------|
E|-----|----------------|-0---------------|-------------------|
                                Em                Am
E|-------------------|-----------------|-0-----0-5---3-----|
B|---0---0---0---1---|-0-------0-----0-|-----1-------------|
G|---2-----2---------|-------0-----0---|-----------5---0---|
D|-----1-------1---1-|-----2---2-2-----|---2---------------|
A|---2---------------|---2-------------|-0-----------------|
E|-------------------|-0---------------|-------------------|
         B7                Em               Am
E|---2-------0---2---|-3---0---0-------|-0-------2-----------|
B|-------0-----------|-0-----------0---|-----0-------0-0-1---|
G|-----2---2---2-2-0-|---0---0-----0---|---2---2---2---------|
D|-------------------|-----------2---0-|---------------------|
A|---2---------------|-3---------------|-2-------------------|
E|-------------------|-----------------|---------------------|
          B7                Cmaj7                B7
Repeat all parts except the last one (last B7 part), and continue.
E|---0-------2-----2-|-----0---5---3---|-2-----------2-----|
B|-------0-------0---|-1---------------|-----0---0---0-----|
G|-----2---2---2-----|-------2---5---0-|---2---2---2---0---|
D|-------------------|---2-------------|-0-----------------|
A|---2---------------|-0---------------|-------------------|
E|-------------------|-----------------|-------------------|
          B7                 Am                 D6

Продолжаем грести бабос на ботах в Telegram.
Только в этот раз есть вариант автоматизировать это дело, привлекая рефералов. Вы можете заработать если »

E|---------2-7---5---|-4-------4-------|-3-------3---3-----| B|---3---------------|-----5-------5---|-----4---4---4-----| G|-------4-----------|---6-----------6-|---5---5-------5---| D|-----4-----9-9---0-|-7-----7-7-7-----|-6-------6-6-------| A|---2---------------|-----------------|-------------------| E|-------------------|-----------------|-------------------| Bm Amaj7 G#maj7 E|-----------------------------------|-------------------| B|-----------------------------------|-------------------| G|---------------7-7-------------7-7-|-7-7-7-7-7-7-7-7---| D|-----------6-6-------------6-6-----|-6-6-6-6-6-6-6-6---| A|-------5-5-------------5-5---------|-5-5-5-5-5-5-5-5---| E|---4-4-------------4-4-------------|-4-4-4-4-4-4-4-4---| E7/G# E7/G# Acoustic guitar continues (1:29) E|-----------------------|---------------------|-----------------------| B|---5-------------------|---------------------|-----------------------| G|-----------------------|---------------------|-----------------------| D|---7-------------------|---------------------|-----------------------| A|---7-7x-5-5x-7-7x-2-2x-|-7-7x-5-5x-7-7x-2-2x-|-7-7x-5-5x-7-7x-2-2x---| E|---5-5x-3-3x-5-5x-0-0x-|-5-5x-3-3x-5-5x-0-0x-|-5-5x-3-3x-5-5x-0-0x---| E|-----------------------|---------------------|-----------------------| B|-----------------------|---------------------|-----------------------| G|-----------------------|---------------------|-----------------------| D|-----------------------|---------------------|-----------------------| A|---7-7x-5-5x-7-7x-2-2x-|-9-9x-7-7x-9-9x-4-4x-|-9-9x-7-7x-9-9x-4-4x---| E|---5-5x-3-3x-5-5x-0-0x-|-7-7x-5-5x-7-7x-2-2x-|-7-7x-5-5x-7-7x-2-2x---| E|-----------------------|---------------------|---0---| B|-----------------------|---------------------|---0---| G|-----------------------|---------------------|---4---| D|-----------------------|---------------------|---2---| A|---9-9x-7-7x-9-9x-4-4x-|-9-9x-7-7x-9-9x-4-4x-|---2---| E|---7-7x-5-5x-7-7x-2-2x-|-7-7x-5-5x-7-7x-2-2x-|---0---| Electric guitar (1:39)/(1:44) E|------------------------------------| B|-------------9----------------------| G|-------11-11---11-9----8-9-8--------| D|---9-9--------------11-------11p9---| A|------------------------------------| E|------------------------------------|








О сайтеАккордыХит-парадПоискУроки ФорумыИщу песню
ПрограммыСвежачок-сПодпискаСтатьи
Яндекс.Метрика