Табулатура Mike Oldfield | Amarok гитара табулатуры уроки тексты песен Mike Oldfield текст lyrics песня аккорды песни ноты нота электрогитара струна  
   А Б В Г Д Е Ж З И К Л М Н О П Р С Т У Ф Х Ч Ш Ы Э Ю Я       Разные песни
1-9 A B C D E F G H I J K L M N O P Q R S T U V W Y Z      Все исполнители

    



группа Mike Oldfield, Табулатура песни Amarok

Группа: Mike Oldfield - другие аккорды (207),   об исполнителе (3 статей),   диски (26),   фотографии (18)
Табулатура песни: Amarok
Просмотров: 944
Прислал: squire (cailinsquires@yahoo.ie)




    
Title : Amarok (39:10)
By    : Mike Oldfield
Album : Amarok
Transcriber : jAB
Date  : JAN-2001
e-mail: jab00@retemail.es
    jab00@eresmas.net
A small beautiful piece from the incredible 'Amarok'...
e[-5-7-9--|-10-----9-----10------|-8-----7-----8-------|-7-----5-----3-----||
B[--------|----7-----7------7----|---5-----5-----5-----|---0-----0-----0---||
G[--------|------7-----7------7--|-----5-----5-----5---|-----0-----0-----0-||
D[--------|----------------------|---------------------|-------------------||
A[--------|----------------------|---------------------|-------------------||
E[--------|----------------------|---------------------|-------------------||
   ~
e[-2-----0---------|---0-----2---|---3---------||
B[-3-3-----3---3---|-0---0-2---2-|-3---3---5---||
G[-2---2-----2---2-|-------------|-------------||
D[-----------------|-------------|-------------||

Продолжаем грести бабос на ботах в Telegram.
Только в этот раз есть вариант автоматизировать это дело, привлекая рефералов. Вы можете заработать если »

A[-----------------|-------0-----|-2-------4---|| E[-----------------|-3-----------|-------------|| e[-5-7-9----|-10-----9-----10------|-8-----7-----8-------|-7-----5-----3-----|| B[----------|----7-----7------7----|---5-----5-----5-----|---0-----0-----0---|| G[----------|------7-----7------7--|-----5-----5-----5---|-----0-----0-----0-|| D[----------|----------------------|---------------------|-------------------|| A[----------|----------------------|---------------------|-------------------|| E[------<7>-|----------------------|---------------------|-------------------|| Harmonic ~ ~ e[-5-----3-----2-----|---0------------|-------------||-----------|| B[-3-3-----3-----3---|-0---0---3------|---3-----3---||-3---------|| G[-2---2-----2-----2-|-------2---2----|-1---1-0---0-||-2---------|| D[-------------------|----------------|-------------||-0---------|| A[-------------------|----------------|-------------||-0---------|| E[-------------------|-3-----2--------|-1-----0-----||-2---------||

Магазином одежды для беременных
Большой выбор качественной одежды по низкой цене
instagram.com







О сайтеАккордыХит-парадПоискУроки ФорумыИщу песню
ПрограммыСвежачок-сПодпискаСтатьи
Яндекс.Метрика