Табулатура Mike Oldfield | The Lake гитара табулатуры уроки тексты песен Mike Oldfield текст lyrics песня аккорды песни ноты нота электрогитара струна  
   А Б В Г Д Е Ж З И К Л М Н О П Р С Т У Ф Х Ч Ш Ы Э Ю Я       Разные песни
1-9 A B C D E F G H I J K L M N O P Q R S T U V W Y Z      Все исполнители

    



группа Mike Oldfield, Табулатура песни The Lake

Группа: Mike Oldfield - другие аккорды (207),   об исполнителе (3 статей),   диски (26),   фотографии (18)
Табулатура песни: The Lake
Просмотров: 2029
Прислал: squire (cailinsquires@yahoo.ie)




    
/---------------------------
| THE LAKE by Mike Oldfield |
---------------------------/
Transcribed by Lukas Kozesnik (luke666@atlas.cz)
Electric guitar part at end of this beautiful song
  Intro
E|----------------------------------|
B|----------------------------------|
G|-------2--4-----------------------|
D|-2-h-4----------------4-h-5-p-4-2-|
A|--------------0-h-2---------------|
E|----------------------------------|
  Tune 1
E|----------------------------------|
B|-3-/-15--12-h-14--12--10--8--7--5-|
G|----------------------------------|
D|-4-/-16--14-------12--11--9--7--6-|
A|-2-/-14--12-------10---9--7--5--4-|
E|----------------------------------|
  Tune 2
E|------------------5----5----|
B|-3-/-12--10--5-h7----5----3-|
G|----------------------------|
D|-4-/-12--11--7-------6----4-|

Продолжаем грести бабос на ботах в Telegram.
Только в этот раз есть вариант автоматизировать это дело, привлекая рефералов. Вы можете заработать если »

A|-2-/-10---9--5-------4----2-| E|----------------------------| End (or Tune 3) E|---------------------5----4----|------5----4----|------5----4----| B|-p2-3-/-12--10--5-h7----4----2-|-5-h7----4----2-|-5-h7----4----2-| G|-------------------------------|----------------|----------------| D|----4-/-12--11--7-------4----2-|-7-------4----2-|-7-------4----2-| A|----2-/-10---9--5-------2----0-|-5-------2----0-|-5-------2----0-| E|-------------------------------|----------------|----------------| **************** * In the second repeat of this (with other instruments), Mike does a small variation, it's something like this (I'm not sure, but it's lightly accurate) E|------5-----------------| B|-5-h7----4--5-5-h7-5--3-| G|------------------------| D|-7-------4--6---------4-| A|-5-------2--4---------2-| E|------------------------| That's all about el. guitar part. If You like to help me transcribe what play acoustic guitar, Your assistance would be welcome. Enjoy it








О сайтеАккордыХит-парадПоискУроки ФорумыИщу песню
ПрограммыСвежачок-сПодпискаСтатьи
Яндекс.Метрика