Табулатура Mike Oldfield | Five Miles Out гитара табулатуры уроки тексты песен Mike Oldfield текст lyrics песня аккорды песни ноты нота электрогитара струна  
   А Б В Г Д Е Ж З И К Л М Н О П Р С Т У Ф Х Ч Ш Ы Э Ю Я       Разные песни
1-9 A B C D E F G H I J K L M N O P Q R S T U V W Y Z      Все исполнители

    



группа Mike Oldfield, Табулатура песни Five Miles Out

Группа: Mike Oldfield - другие аккорды (207),   об исполнителе (3 статей),   диски (26),   фотографии (18)
Табулатура песни: Five Miles Out
Просмотров: 1059
Прислал: squire (cailinsquires@yahoo.ie)




    
=========================================================================
         Title : Five Miles Out
        Artist : Mike Oldfield 
         Album : Five Miles Out
Transcribed by : Steve Farrell
=========================================================================
Legend
------
 h  = hammer-on
 p  = pull-off
 b  = bend
 r  = bend release
 /  = slide up/down
<5> = natural harmonic
[5] = artifical harmonic
 ~  = vibrato
 tr = trill
G|------------------------------|-----|-----|-----|--------------------
D|---------9-----9-----9-----9--|--%--|--%--|--%--|-----9-----9--------
A|------------------------------|-----|-----|-----|--------------------
E|------7-----7-----7-----7-----|-----|-----|-----|--7-----7-----5--7--
G|--------|-------------------------|-----------7-----7--------------|--
D|--9-----|-----7-----4p4-----9-----|--------------------------9-----|--
A|--------|-------------------------|--------5-----5-----------------|--
E|-----7--|--5-----2-------7-----7--|--------------------5--7-----7--|--
G|--------------------------|--------------------------|--------------
D|-----7-----4--4-----9-----|--------------------2--2--|--------------
A|-----------------------2--|--2--2--2--4--5-----------|--2--2--2--4--
E|--5-----2--------7--------|-----------------0--------|--------------
G|--------------|------------------------------|-----------------------
D|--------2-----|------------------------2--2--|-----0h2--0h2p0--------
A|--5--------0--|------2--2--2--3--5-----------|--2--------------2--0--
E|-----0--------|---------------------0--------|-----------------------
G|--------|-----7-----7-----7-----7--|--------------------------|-----
D|--------|--------------------------|-----7-----7-----7-----7--|-----
A|--------|--5-----5-----5-----5-----|--------------------------|-----
E|--2--2--|--------------------------|--5-----5-----5-----5-----|--7--
G|-----------------------|-----7-----7-----9-----10--|-----7--7-----7--
D|--9-----9-----9-----9--|---------------------------|-----------------
A|-----------------------|--5-----5-----7-----8------|--5--------5-----
E|-----7-----7-----7-----|---------------------------|-----------------
G--|-----------------|-----------------------|--------------|-----------
D--|-----7--7-----7--|-----9--9-----9--------|--------------|-----9-----
A--|-----------------|-----------------------|--5--5--7--8--|-----------
E--|--5--------5-----|--7--------7-----------|--------------|--7-----7?
G|-----------------|-------------------------|--------------------------
D|--9--------------|-------------------------|--------------------------
A|-----------------|-------------------------|--------------------------
E|-----5--7--7--7--|--7--7--5--5--5--2--2--2/|--7--7--7--7--5--7--7--7--
G--|------------------------------------|------------------------------
D--|------------------------------------|--/9--9--9--11--12---/14--14--
A--|---------------------------------8--|--/9--9--9--11--12---/14--14--
E--|------------7--7--5--5--5--7--7-----|--------------------0---------
                                       w/distortion
G--|------------------------------|------------------------------|----
D--|--9--9--9--11--12---/14------|--/9--9--9--11--12---/14--14--|----
A--|--9--9--9--11--12---/14--12--|--/9--9--9--11--12---/14--14--|----
E--|--------------------0-----12--|--------------------0---------|----
G|----------------------------------------|--------------|--------------
D|----/9--12--14--12--14--12--9--7--------|--------------|--------------
A|----/9--12--14--12--14--12--9--7--9--9--|--5--5--5--5--|--------------
E|----------------------------------9--9--|--------------|--5--5--5--5--
                                  clean (lose distortion)
G|--------|--------------------|--------------|-----------------------
D|--------|--------------------|--------------|-----------9-----9-----
A|--------|--------------------|--5--5--7--9--|-----------------------
E|--5--5--|--7--7--7--7--7--9--|--------------|--------7-----7-----5--
G|-----------|-------------------------|-----7-----7--------------|-----
D|-----9-----|-----7-----4p4-----9-----|--------------------9-----|-----
A|-----------|-------------------------|--5-----5-----------------|-----
E|--7-----7--|--5-----2-------7-----7--|--------------5--7-----7--|--5--

Продолжаем грести бабос на ботах в Telegram.
Только в этот раз есть вариант автоматизировать это дело, привлекая рефералов. Вы можете заработать если »

G|-----------------------|------------------------------|-------------- D|--7-----4--4-----9-----|------------------------2--2--|-------------- A|--------------------9--|------2--2--2--4--5-----------|--2--2--2--4-- E|-----2--------7--------|---------------------0--------|-------------- G|--------------|--------------------------|-------------------------- D|--------2-----|--------------------2--2--|-----0h2--0h2p0----------- A|--5--------0--|--2--2--2--4--5-----------|--2--------------2--0----- E|-----0--------|-----------------0--------|-----------------------2-- G|-------------------------------------------|------------------------ D|-------------------------------------------|------------------------ A|-------5--5----5--5----3--3--5--5--5--5----|--5--5----3--3----3--3-- E|--2----------------------------------------|------------------------ G|----------------|--------------------------------------------------- D|----------------|--------------------------------------------------- A|--5--5--5--5----|--5--5--5--5--3--3--5--5--5--5--5--5----3--3----3-- E|----------------|--------------------------------------------------- G|-----------------------|-----------------------------------|-------- D|-----------------------|------------------5--5--5--5--5----|-------- A|--3--5--5--5--5--------|--5--5----5--5---------------------|--5--5-- E|-----------------5--5--|-----------------------------------|-------- G|------------------------------------------------------------|------17h D|--------5--5------------------------------5--5--5--5--5-----|--19----- A|--5--5--------3--3--3--3--5--5----5--5-------------------7--|--------- E|------------------------------------------------------------|--------- G|--19--17h19p17------------------|--------------------------10-----10-- D|----------------19--17--14--14--|------------------------------------- A|--------------------------------|--8--8--8--8--8--8--8--8------8------ E|--------------------------------|------------------------------------- G----|-----------------------------------|------------------------------ D----|------------------------10-----10--|------------------------------ A----|-----------------------------------|--5--5----5--5----5--5--5--5-- E----|----8--8----8--8--8--8------8------|------------------------------ G|--7-----9--10--|--12--12--10------12------12------12--|-------------- D|---------------|--------------14------12------10------|-------------- A|-----5---------|--------------------------------------|------13--13-- E|---------------|--------------------------------------|-------------- G|-------------------------------|--------------------------------------- D|-------------------------------|--------------------------------------- A|----13--13--------------12h13--|--8--8------8--8--------10--10--10h12-- E|------------13--15--15---------|--------10----------10----------------- G--|------------------------------------------|------------------------ D--|------------------------------------------|------------------------ A--|--13--13--13--13--13----------------------|--------15----------15-- E--|------------------------13--15--15--15----|------------13--13------ G|------------------------------|------------------------------------|-- D|------------------------------|------------------------------------|-- A|--15--13--15--15--13--12--10--|--8--8--8--8------8--8--8--8--8--8--|-- E|------------------------------|------------------------------------|-- G|-------------------------------------------------------------------- D|-------------------------------------------------------------------- A|-------------------------------------------------------------------- E|--8--8--8--8--8--8----8--8--8--8--8--8--10--10--10--10------10--10-- G|------------------|---------------------------|--------------10------- D|------------------|---------------------------|----------------------- A|------------------|--7--7--7--7---------7-----|--8--8--8--8--------8-- E|--10--10--10--10--|--------------8---------8--|----------------------- G|-----10-----10--|-------------------------------------------|---------- D|----------------|-----------------10-------------10-----10--|---------- A|--8------8------|-------------------------------------------|---------- E|----------------|--------8--8--8------8----8--8------8------|--10--10-- G|------------------------------------|--------------------------10--10-- D|----------12------------12------12--|-----------10-----10--10--10--10-- A|------------------------------------|---------------------------------- E|--10--10--------10--10------10------|--8--8--8------8------------------ Repeat last four bars to end. G|--10--9------------|---- D|--10--9------------|---- A|-------------------|---- E|---------8--8------|----








О сайтеАккордыХит-парадПоискУроки ФорумыИщу песню
ПрограммыСвежачок-сПодпискаСтатьи
Яндекс.Метрика