Mike Oldfield | Orabidoo  (2)      Mike Oldfield  lyrics        
        
1-9 A B C D E F G H I J K L M N O P Q R S T U V W Y Z     

    



Mike Oldfield, Orabidoo (2)

: Mike Oldfield - (207),    (3 ),    (26),    (18)
: Orabidoo (2)
: 1110
: squire (cailinsquires@yahoo.ie)




    
Mike Oldfield "Five Miles Out"
Orabidoo Finale
(before Ireland's eye part)

tab explanation
h -> hammer on
p -> pull off

8:33 min
 Am G Em Am
e||----12-----------------------------------------12------12--|
B||-------13-12h13p12-------15-12-13-15------15--------13-----|
G||-14----------------14-12---------------12--------14--------|
D||------------------------------------14---------------------|
A||-----------------------------------------------------------|
E||-----------------------------------------------------------|

 Am G Em Am
e|------12-----------------------------------------12--------------|
B|---------13-12h13p12-------15-12-13-15------15------13-12--------|
G|---14----------------14-12---------------12------------------12--|
D|14------------------------------------14------------------14-----|
A|-----------------------------------------------------------------|
E|-----------------------------------------------------------------|

 Dm C Em Am
e|----17-13-12h13p12-------15-12-13-15------------12------------||
B|-15----------------15-13--------------------15------------13--||
G|-----------------------------------------12------------14-----||
D|--------------------------------------14------------14--------||
A|--------------------------------------------------------------||
E|--------------------------------------------------------------||

 Dm C Em Am
e|------17-13-12h13p12-------15-12-13-15-------------12------------|
B|---15----------------15-13--------------------15-----13-12-------|
G|-14----------------------------------------12----------------12--|
D|----------------------------------------14----------------14-----|
A|-----------------------------------------------------------------|
E|-----------------------------------------------------------------|

Repeat all.It has a little variation at the end.

Telegram.
, . »

(((***********))) e|------17-13-12h13p12-------15-12-13-15-------------12-----------------| B|---15----------------15-13--------------------15------13----12--------| G|-14----------------------------------------12------------14----12-14--| D|----------------------------------------14----------------------------| A|----------------------------------------------------------------------| E|----------------------------------------------------------------------| Then 10:08 min (same chords as above) e||-12-------------------------------12--|| B||----13-----15-12--------15------------|| G||---------------------12--------14-----|| D||--------------------------------------|| A||--------------------------------------|| E||--------------------------------------|| e|-17-13-----15-12--------------------12--| B|-------------------------15-------------| G|----------------------12--------14------| D|----------------------------------------| A|----------------------------------------| E|----------------------------------------| e|-17-13-----15-12-----------------------------| B|-------------------------15-----13-12--------| G|----------------------12--------------14-----| D|-----------------------------------------14--| A|---------------------------------------------| E|---------------------------------------------| tab by: KeltiK2001@hotmail.com If you find any mistakes... please send me or correct yourself! hehe Dedicated to my marvellous friend Jose (caceres) and all of my friends from Seville University. English Filology!!! You're fantastic: Pelo,Daniello,Lorena,Cristina,Elena,Rocio,Carlos... (i hope not to forget anybody...) 27/Ene/2003








-
-
.